Acordes de Guitarra » P »Patricio Rey y sus Redonditos de Ricota » Perdiendo el tiempo (Tab)

Perdiendo el tiempo
Patricio Rey y sus Redonditos de Ricota

Letras, Acordes y Tabs para Guitarra, Bajo y Ukulele

  • E|------------------------|
    B|------------------------|
    G|------------------------|
    D|--------------------0---|
    A|-2-2-0---2----2-0-------|
    E|-------2----------2-----|
    
    Intro: Riff x4 y D2
    
    Estrofa: Se puede hacer el riff o tocarla toda con Bm
    
    Va a amanecer y desde el muelle
    veo el ferry en que te vas.
    El amor empezó a quedarte chico
    y el silencio lo enredó.
    
     D2                          C5
    ¡Angeles! yo ya no me puedo ir... ¡oh! no
    Bm
    Me ata un fuego y mi sueño duerme aquí.
    
  • Parte 1
    G|--------------------------|
    D|--------------------------| x 12   (cuando entra la viola en la nota Si se
    A|--2--0-2-0----------------|         suspende y retoma)
    E|---2----2--2--------------|
    
    
    Parte 2
    G|-----------------------|
    D|-----------------------|  x 3
    A|--5---3----------------|
    E|-----------------------|
    
    G|------------------------|
    D|------------------------|
    A|--5---3---------3h5s(2)-|
    E|------------------------|
    
    
    Parte 1 x8
    
    Parte 2
    
    Parte 1 x4
    
    
    Parte 3
    G|---------------------|--------------------------------------|
    D|---------------2-2---|-----------------2--------------------| x2
    A|--------3-4----------|---------3-4--------------------------|
    E|--5-5----------------|--5-5----------------333303-033303----|
    
    
    Parte 1 x8
    
    Parte 2
    
    Parte 1 x4
    
    
    Parte 4
    G|---------------------|-----------------------------------------------|
    D|---------------2-2---|-----------------2-----------------------------|
    A|--------3-4----------|---------3-4-----------------------------5-5-
  • +
    ¡Colabora con nosotros!
    Envíanos tu versión de esta canción
  • Tutorial
    HD
    Explicado - Como tocar "Perdiendo tiempo" de Los Redondos en el bajo tutorial#302
    10:36

Letra de Perdiendo el tiempo
Estrofa: Se puede hacer el riff o tocarla toda con Bm
Va a amanecer y desde el muelle
veo el ferry en que te vas.
El amor empezó a quedarte chico
y el silencio lo enredó.
¡Angeles! yo ya no me puedo ir... ¡oh! no
Me ata un fuego y mi sueño duerme aquí.
Ella sí que era el fuego,
ella sí que bailaba en las llamas.
Riff o Bm
Por primera vez tengo miedo
de no hacer bien mi papel.
Sé que voy a perder un poco de tiempo
y tirar con lo que hay.
¡Angeles! yo ya no puedo partir... ¡oh! no
me ata un fuego y mi sueño duerme aquí.
Ella sí que era el fuego,
ella sí que bailaba en las llamas.
Apagó sus ojos tristes y luego embarcó...
Recuerdos que mienten un poco
(siempre fue así)
Nuestro miedo helará este infierno creo.
Sopla un viento frío en la ciudad.
Riff o Bm
Va a amanecer y desde el muelle
veo el ferry en que te vas.
El amor empezó a quedarte chico
y el silencio lo enredó.
¡Angeles! yo ya no me puedo ir... ¡oh! no
Me ata un fuego y mi sueño duerme aquí.
Ella sí que era el fuego,
ella sí que bailaba en las llamas.
Queda mi suerte aquí.
* Tocar una sola vez, para darle el efecto que le hace Skay.
Los acordes A, G y G7 pueden hacerlos con cejilla así suena mejor
Un saludo para Santi el engripado y los demás incoherentes...




[Perdiendo el tiempo chords][Perdiendo el tiempo cifra]
© LaCuerda.net · aviso legal · privacidad · es · en · pt · contacto