Tablatura para Bajo de Patricio Rey y sus Redonditos de Ricota: Perdiendo el tiempo
Conexión · Inscripción
Letras y Acordes
Pantalla Completa
Imprimir
Versión Texto
Añadir Favorito
Otras Versiones

Mostrar Diagramas
Desfile Automático
Formato del Texto


Perdiendo el tiempo(BAJ)

Patricio Rey y sus Redonditos de Ricota

calidad:
redo0662
AUTOR: 3)
ALBUM: desconocido
Enviado por mateomdr, basado en Bruno
Parte 1
G|--------------------------|
D|--------------------------| x 12   (cuando entra la viola en la nota Si se
A|--2--0-2-0----------------|         suspende y retoma)
E|---2----2--2--------------|


Parte 2
G|-----------------------|
D|-----------------------|  x 3
A|--5---3----------------|
E|-----------------------|

G|------------------------|
D|------------------------|
A|--5---3---------3h5s(2)-|
E|------------------------|


Parte 1 x8

Parte 2

Parte 1 x4


Parte 3
G|---------------------|--------------------------------------|
D|---------------2-2---|-----------------2--------------------| x2
A|--------3-4----------|---------3-4--------------------------|
E|--5-5----------------|--5-5----------------333303-033303----|


Parte 1 x8

Parte 2

Parte 1 x4


Parte 4
G|---------------------|-----------------------------------------------|
D|---------------2-2---|-----------------2-----------------------------|
A|--------3-4----------|---------3-4-----------------------------5-5---|
E|--5-5----------------|--5-5------------------3x--3x-3x---3356--------|


                                                  Apago sus ojos…
G|---------------------|----------------------------|---------------------|
D|---------------2-2---|-----------------2----------|---------------------|
A|--------3-4----------|---------3-4----------------|---------------------|
E|--5-5----------------|--5-5----------------333303-|-3-2-0---5--5--5--5--|


Recuerdos que mienten un poco…         … sopla un viento…
G|-----------------------------------------------------------------|
D|-----------------------------------------------------------------|
A|-----5-------------------5s3------------------------00000000-----|
E|--------------3---------------3---3-2-0--00000000000-------------|


Parte 1 x8 (solo de guitarra)

Parte 3    (solo de saxo)

Parte 1 x8

Parte 2

Parte 1 x4

Parte 3 x2


…Queda mi suerte aquí.
G|-----------------------------|
D|-----------------------------|
A|-----------2-----------------|
E|-----------------------------|


-LoZA-
Este fichero es trabajo propio de su transcriptor y representa su interpretación personal de la canción. El material contenido en esta página es
para exclusivo uso privado, por lo que se prohibe su reproducción o retransmisión, así como su uso para fines comerciales.

© LaCuerda.net · Aviso Legal · Privacidad