Acordes de Guitarra » P »Patricio Rey y sus Redonditos de Ricota » Música para pastillas (Tab)

Música para pastillas
Patricio Rey y sus Redonditos de Ricota

Letras, Acordes y Tabs para Guitarra, Bajo y Ukulele

  • Cm               G#          A#
    Flacas gimnastas de América.
    Cm               G#          A#
    Secas, austeras soviéticas,
    G#      Cm         G#
    muchachitas fatales en blancos
    Cm
    zoquetes chinos.
    G#         G                   Cm - G# - G
    Son todas joyas, patricias de amor.
    
    La más hermosa niña del mundo
    puede dar sólo lo que tiene para dar.
    Música para pastillas (¡rápido!)
    y mucha cuchillería.
    ¡Pará, mi amor, esto está muy
    Shangai!
    Roqueros bonitos, educaditos.
    Con grandes gastos, educaditos.
    Emboquen el tiro libre,
    
  • E|--------||----------------------------------|---------0-%-----------||
    B|--------||----------------------------------|---------0-%-----------||
    G|--------||*----------------(5)-4-2----------|-5-5-4-5--------------*|| X4
    D|----2-4-||*-5-4-2--(5)-4-2----------5-4-2-0-|-5-5-4-5------ƒ--5-4--*||
    A|--2-----||----------------------------------|-3-3-2-3---------5-4---||
    E|--------||----------------------------------|-----------------3-2---||
    
    GUITARRA 2:                                     palm mute
    E|--------||----------------------------------|--------------------------||
    B|--------||----------------------------------|5-7-8--5-7-8--5-7-8-5-7-8-||
    G|--------||*-(9)--9---------(5)--------------|-------------------------*|| X4
    D|--------||*-(9)--9---------(5)--------------|-------------------------*||
    A|--------||--(7)--7---------(3)--------------|--------------------------||
    E|--------||--(0)-----------------------------|--------------------------||    
                                                    PM.......................
    BAJO:
    G|--------||-----------|----------------------|--------------------------|| X4
    D|--------||*----------|----------------------|-------------------------*||
    A|--------||*-7--------|-(3)-5--(3)-----------|-3-3-2-3-----ƒ-----------*||
    E|--------||-----7-(7)-|----------------------|-----------0-----3-0-2----||
    
  • E--------|---------------------------------|--
    B--------|---------------------------------|--
    G--------|----------------5--4-2-----------|--
    D----2-4-|-5-4-2--5--4-2----------5--4-2-0-|--
    A--3-----|---------------------------------|--
    E--------|---------------------------------|--
    
    E----------------------------------|
    B--5-7-8-5~-7-8-5-5-7-8-5~-7-8-----|
    G----------------------------------|
    D----------------------------------|
    A----------------------------------|
    E----------------------------------|
    
    RIFF2
    E-----------|--7~--5-------------|
    B-----------|---------8-7-5-7-8--|
    G--5-5-4-5--|--------------------|
    D--5-5-4-5--|--------------------|
    A--3-3-2-3--|--------------------|
    
  • Intro
    G|----------------------------------|x4
    D|-------5-55-5---------------------|
    A|-5-55-5---------------------------|
    E|-------------1-3-4-1-3-4-1--1-3-4-|
    
     |---------|x3	
     |---------|
     |-3-3-2-3-|
     |---------|
    
    Verso
    G|----------------------------------|x4
    D|-------5-55-5---------------------|
    A|-5-55-5---------------------------|
    E|-------------1-3-4-1-3-4-1--1-3-4-|
    
    Coro
    G|---------|x3
    D|---------|
    A|-3-3-2-3-|
    E|---------|
    
    Solo de Saxo + Verso
    G|----------------------------------|x4
    D|-------5-55-5---------------------|
    A|-5-55-5---------------------------|
    E|-------------1-3-4-1-3-4-1--1-3-4-|
    
    Coro
    G|---------|x3
    D|---------|
    A|-3-3-2-3-|
    E|---------|
    
    Solo de Guitarra
    G|----------------------------------|x4
    D|----------------------------------|
    A|-7-77-7h6p5-55-5h4p2-22-2-3333-55-|
    E|----------------------------------|
    
    Solo de Saxo + Verso
    G|----------------------------------|x4
    D|-------5-55-5---------------------|
    A|-5-55-5--
  • +
    ¡Colabora con nosotros!
    Envíanos tu versión de esta canción
  • Tutorial
    Como tocar Musica para pastillas de Los redonditos de ricota (tutarras.com.ar)
    14:01

Letra de Música para pastillas
Flacas gimnastas de América.
Secas, austeras soviéticas,
muchachitas fatales en blancos
zoquetes chinos.
Son todas joyas, patricias de amor.
La más hermosa niña del mundo
puede dar sólo lo que tiene para dar.
Música para pastillas (¡rápido!)
y mucha cuchillería.
¡Pará, mi amor, esto está muy
Shangai!
Roqueros bonitos, educaditos.
Con grandes gastos, educaditos.
Emboquen el tiro libre,
que los buenos volvieron,
y están rodando cine de terror.
Gracias..
para todos los pibes del normal y de pergamino que la rompen.




[Música para pastillas chords][Música para pastillas cifra]
© LaCuerda.net · aviso legal · privacidad · es · en · pt · contacto