Acordes de Guitarra » P »Patricio Rey y sus Redonditos de Ricota » Divina TV Fuhrer (Tab)

Divina TV Fuhrer
Patricio Rey y sus Redonditos de Ricota

Letras, Acordes y Tabs para Guitarra, Bajo y Ukulele

  • LA            RE7
    Me estoy por ahogar, me voy a pique
    LA  RE7
    glu glu
    LA           RE7
    Me est  por hundir, mi fiel fantasma
    LA  RE7
    bu buuu
    RE7
    Si no me protege el empleado mayor
           LA
    que proyecta todo el tiempo
    MI televisor
    RE7
    Ser, promovido para navidad
    MI
    Como no se nos ocurrió.
    
    LA         RE7
    Voy a exagerar, mi fiebre no es tan
    
  • intro
    E-----------------/-------------/
    B-----------------/-------------/
    G-----------------/-------------/
    D-9-9-9-9-9-9-9-9-/-----5-7-5-7-/
    A-7-7-7-7-7-7-7-7-/-5\7---------/
    E-----------------/-------------/
    
    riff 1 (sobre la base de la estrofa)
    E-----------------------/X4
    B-----------------------/
    G---------------------5-/
    D-7-5-7-5-7-5-7-0-0-5---/
    A-----------------------/
    E ----------------------/
    
    riff 2 (SOBRE ESTRIBILLO)
    E--------------/----------------------------------/---------------------/
    B--------------/----------------------------------/---------------------/
    G--------------/----------------------------------/---------------------/
    D--------------/----------------------------------/-----9-9-9-9-9-9-9-9-/
    A-7-6-5--7-6-5-/-5-3-0---------------0-3-5--0-3-5-/-5\7-7-7-7-7-7-7-7-7-/
    E--------------/--------0-3-5-0-3-5---------------/---------------------/
    
    SOLO(SOBRE RIFF 2)
    E-----------------------------/-----------------------------/--------------/--
  •         MI             |              .___________X4__________.|
    E|-------------------||--12-(12b)~-/-||-------------------------||
    B|-------------------||--------------||---------------------(5~)||
    G|-9-9-9-9-9-9-9-9---||--------------||---------------------(5~)||
    D|-9-9-9-9-9-9-9-9-ƒ-||--------------||-7-5-7-5-7-5-7-----5-----||
    A|-7-7-7-7-7-7-7-7---||--------------||---------------5-5-------||
    E|-------------------||--------------||-------------------------||
    
    GUITARRA 2:             ___________________PARTE 1_____________
            MI             |              .___________X4__________.|
    E|-------------------||--------------||-------------------------||
    B|-------------------||--------------||---------------------(5~)||
    G|-9-9-9-9-9-9-9-9---||------5-7-5-7-||---------------------(5~)||
    D|-9-9-9-9-9-9-9-9---||-5/-7---------||-7-5-7-5-7-5-7-----5-----||
    A|-7-7-7-7-7-7-7-7---||--------------||---------------5-5-------||
    E|-------------------||--------------||-------------------------||
    
                            ______________X4___________________
       BAJO:               |   LA              RE              | (parte 1)
    G|-------------------||---------------|---------------------||
    
  • Intro
    G|----------|
    D|----------|
    A|-77777777-|
    E|----------|
    
     |-------------------------------------|x2
     |-------------------------------------|
     |----------55555555----------55555555-|
     |-55555555----------55555555----------|
    
     |---------------------------------|
     |---4-7-----4-7-------------------|
     |-5-----5-5-----5---4-7-----4-7---|
     |-----------------5-----5-5-----5-|
    
     |--------------------------|
     |---4-7-----4-7------------|
     |-5-----5-5-----5-77777777-|
     |--------------------------|
    
    Verso
    G|-------------------------------------|x2
    D|-------------------------------------|
    A|----------55555555----------55555555-|
    E|-55555555----------55555555----------|
    
    Coro
    G|---------------------------------|
    D|---4-7-----4-7-------------------|
    A|-5-----5-5-----5---4-7-----4-7---|
    E|-----------------5-----5-5-----5-|
    
     |--------------------------|
     |---4-7-----4-7------------|
     |-5-----5-5-----5-77777777-|
     |--------------------------|
    
    Verso
    G|-----
  • +
    ¡Colabora con nosotros!
    Envíanos tu versión de esta canción
  • Tutorial
    HD
    Explicado - Como tocar "Divina TV führer" de Los Rendondos en el bajo tutorial#176
    9:41

Letra de Divina TV Fuhrer
Me estoy por ahogar, me voy a pique
glu glu
Me est por hundir, mi fiel fantasma
bu buuu
Si no me protege el empleado mayor
que proyecta todo el tiempo
Ser, promovido para navidad
Como no se nos ocurrió.
Voy a exagerar, mi fiebre no es tan
alta
Esta es la cita peor, es una cita a
ciegas
Al planeta un bombazo le vamos a dar
para que no nos moleste nunca
nunca mas
Seré promovido para Navidad
como no se nos ocurrió.
No vas a esperar, que enfríen a tu
amigo
Si ya conoces, la forma novedosa
Divina TV Furer mi amor
donde quiera que vaya eveready
estará
Seré promovido para Navidad
como no se nos ocurrió.




[Divina TV Fuhrer chords][Divina TV Fuhrer cifra]
© LaCuerda.net · aviso legal · privacidad · es · en · pt · contacto