Acordes de Guitarra » P »Patricio Rey y sus Redonditos de Ricota » Caña seca y un membrillo (Tab)

Caña seca y un membrillo
Patricio Rey y sus Redonditos de Ricota

Letras, Acordes y Tabs para Guitarra, Bajo y Ukulele

  •     RE      DO     SOL
        Negrita yace asustada,
        RE        DO     SOL
        la hormiga se le durmió.
        RE          DO         SOL
        -Dios ya no quiere que baile...-
        RE      DO       SOL
        me dijo y me sofocó.
    
        RE     DO       SOL
        ¡Vamos negrita, bailá hasta el fin!
        RE     DO       SOL
        Vamos, negrita, hacelo por mí. (2 VECES)
    
    
        La curva no se ha mojado,
    
        ni patinó mi animal.
    
        Morena, vi tu camisa mojada, secando y arrebaté!
    
  •         Intro:(D C9 G)
    
           D        C9       G
            Negrita yace asustada,
           D          C         G
            la hormiga se le durmió.
           D            C9       G
           -Dios ya no quiere que baile...-
           D           C9     G
            me dijo y me sofocó.
             D        C9
            Vamos negrita!
           G
            bailá hasta el fin, hacelo por mi.
    .
          La curva no se ha mojado,
          ni patino mi animal.
          Morena, vi tu camisa mojada,
          secando y arrebaté!
    
    
  •         RE        DO         SOL           RE        DO         SOL
    E|----2------|-------3--|-------3-----|----2---|---------3-|--------(3)----3-----|
    B|------3----|----------|-----0---0---|-----3--|-----------|------0-(3)----3-3---|
    G|--------2--|-----0----|---0-------0-|------2-|------0----|----0--------------0-|
    D|--0--------|---2------|-------------|-0------|----2------|---------------------|
    A|-----------|-3--------|-------------|--------|--3--------|---------------------|
    E|-----------|----------|-3-----------|--------|-----------|--3------------------|
    
    BAJO:
    G|-----------|----------|-------------|--------|-----------|---------------------|
    D|-----------|----------|-------------|--------|-----------|---------------------|
    A|-----------|----------|-------------|--------|-----------|---------------0-2-3-|
    E|-----------|----------|-------------|--------|-----------|---------------------|
    
    
    guitarra.
            RE        DO         SOL           RE        DO         SOL
    E|----2------|-------3--|-------3-----|----2---|---------3-|--------(3)----3-----|
    B|------3----|----------|-----0---0---|-----3--|-----------|------0-(3)----3-3---|
    G|--------2--|-----0----|---0-------0-|------2-|------0----|----0--------------0-|
    
  • *
     Intro y Versos:
    G|----------------------------|
    D|----------------------------|
    A|-5--5-3--3------------2-3---|
    E|-----------3--3-3---5-------|
    
    *
     Coros:
    G|-----------------------------------|
    D|---4------2------------------------|
    A|-5----5-3----3---2-5----2-----2----|
    E|---------------3------3---3-5------|
    
    *
     Durante el Solo de Saxo:		Riff Especial del Solo:
    G|------------------------------------| G|---------------------|
    D|-----4--------2---------------------| D|---------------------|
    A|-5-5---5--3-3---3------2---5---2----| A|-5-5-----3-3---------|
    E|-------------------3-3---3---3---3--| E|-----------------3-3-|
    
    *
     Riff (después de él, vienen Estribillos hasta que termine la canción):
    G|-----------------|
    D|-----------------|
    A|-5---5-3---3-----|
    E|-------------3---|
    
    Escuchá la canción para saber el ritmo
  • Corrección de 'Caña seca y un membrillo'
    
    
    Intro-Versos        
    |--------------------------------|x5
    |--------------------------------|  
    |----2---3---5-----5---3---3-----|  
    |3-----------------------------3-|  
    
    |--------------------------------||--------------------------------|
    |--------------------------------||--------------------------------|
    |----2---3---5-----5---3---3-----||--------------------------------|
    |3-------------------------------||--3-----3-----3-----3-----3-----|
    
    Estribillo: hace esta base con variaciones al final (fíjense cuando va cada una)
    
    Base	                            Variación 1        Variación 2
    |--------------------------------| |-----------------|---------------|   
    |----4-----------2---------------| |-----------------|---------------|
    |5-------5---3-------3-----2---5-| |5-----3-----2----|--------2---3--|
    |----------------------3---------| |-----------------|3---3----------|
    
    Variación 3        Variación 4
    |--------------
  • +
    ¡Colabora con nosotros!
    Envíanos tu versión de esta canción
  • Tutorial
    HD
    Explicado - Como tocar "Caña seca y un membrillo" de Los Redondos en el bajo tutorial#189
    18:34

Letra de Caña seca y un membrillo
Negrita yace asustada,
la hormiga se le durmió.
-Dios ya no quiere que baile...-
me dijo y me sofocó.
¡Vamos negrita, bailá hasta el fin!
Vamos, negrita, hacelo por mí. (2 VECES)
La curva no se ha mojado,
ni patinó mi animal.
Morena, vi tu camisa mojada, secando y arrebaté!
Fuera pechito dañino,
milagro te hará cambiar,
un dedalito de caña, soplada
y este ritmo zumbador.
(ESTRIBILLO)
Tum-tum te agita morena,
tu cuerpo se impacientó.
-¡Dios ya no me aguanta quieta!-
me dijo ¡corre, corrida, apuró!.
(ESTRIBILLO)




[Caña seca y un membrillo chords][Caña seca y un membrillo cifra]
© LaCuerda.net · aviso legal · privacidad · es · en · pt · contacto