Acordes de Guitarra » J »Juanes » Mala Gente (Tab)

Mala Gente
Juanes

Letras, Notas, Punteos, Tablaturas y Acordes de Guitarra (Tabs & Chords)

  • Tablatura
    e---------------------------------------------/
    b-2/3-0-0-2-3-0-2-3-2-0-----0-2--0-2----------/
    g-----------------------3-3----3-----3--------/
    d---------------------------------------------/
    a---------------------------------------------/
    E---------------------------------------------/
    
    Bm                 F#    
    Tu me pides que te deje ahora, ahora
    Bm          F#
    Ahora cuando más te necesito
    Bm                    F#
    Tu me dices que este amor se fue al olvido ahora
    Bm          F#
    Ahora cuando yo ya no te olvido
    Bm                F#
    Tu me pides que seamos solo amigos, amigos
    Bm                   F#
    Porque a mi no me interesa ser tu amigo 
    Em                    F#
    
  • Tablatura
    Saludos amigos y disfruten de este super solo!
    
             Mordido
    e|----------------------------------------------------------------|
    B|-/9vib-8-7-6-7-7h8-7--------------------------------------------|
    G|---------------------9-7-6vib-7-6h7p6/4-6-4h6p4-3-2vib----------|
    D|----------------------------------------------------------------|
    A|----------------------------------------------------------------|
    E|----------------------------------------------------------------|
    
    e|----------------------------------------------------------------|
    B|----------------------------------------------------------------|
    G|---3-3---3-4/6/4-3----------------------------------------------|
    D|-5-----5-----------5-4-2----------------------------------------|
    A|-------------------------5-4-2-1-2-1----------------------5-----|
    E|-------------------------------------3-2vib-3-2-3-2--5/7--------|
    
    
    e|----------------------------------------------------7--------7--|
    B|-------------------3-3h5-3--------------------
  • Tablatura
    INTRO:
    e|-------------------------------------------|
    b|-------------------------------------------|
    g|----7-4-4-6-7-4-6-7-6---4-3-3-4-6-3-4-6-4--|
    d|-------------------------------------------|
    a|-------------------------------------------|
    e|-------------------------------------------|
    
    
    Solo:
    e|----------------------------------------------------------|
    b|----------------------------------------------------------|
    g|-13vibrado-12-11-10-11-12-11-9----------------------------|
    d|-------------------------------12-11-9-9-9-9-9-8-9-11-9-8-|
    a|----------------------------------------------------------|
    E|----------------------------------------------------------|
    
    e|---------------------------------------------------------------------|
    b|---------------------------------------------------------------------|
    g|---------------------------------------------------------------------|
    d|-8-9-8-9-11-9-8------------------------------------------------9-9-8-|
    a|---------------
  • Tab p/Bajo
    Este es el tab del bajo, espero que les quede bien, y pongan 
    atención a las entradas en el coro y solo
    
    Verso:
    
    G |------|----------------------------|----------------------------|
    D |------|------------4---------------|------------4---------------|
    A |-14/2-|-2-22---2-2--------------4--|-2-22---2-2--------------4--|
    E |------|--------------2-22---2-2----|--------------2-22---2-2----|
    
    G |----------------------------|--------------------------|
    D |------------4---------------|------------4-----------2-|
    A |-2-22---2-2--------------4--|-2-22---2-2------2--4-----|
    E |--------------2-22---2-2----|--------------2-----------|
    
    G |----------------------------|--------------------------|
    D |------------4---------------|-----------4-----------2--|
    A |-2-22---2-2--------------4--|-2-22---2-2------2--4-----|
    E |--------------2-22---2-2----|--------------2-----------|
    
    Pre Coro:
    
    G |--------------------|------------------------|
    D |-------5--------4---|-------5-----------
  • Batería
    1er Verso
      |_______3x_______|                                 |_______2x_______|
    C |----------------|----------------|X---------------|----------------|
    H |----------------|----------------|----x-x-x-x-x-x-|x-x-x-x-x-x-x-x-|
    S |----------------|----------------|----o-------o---|----o-------o---|
    F |----------------|------------o---|----------------|----------------|
    B |----------------|------------o---|o-------o-o-----|o-------o-o-----|
    
                       |_______3x_______|                |_______3x_______|
    HF|--------------x-|----------------|--------------x-|----------------|
    H |x-x-x-x-x-x-x---|x-x-x-x-x-x-x-x-|x-x-x-x-x-x-x---|x-x-x-x-x-x-x-x-|
    S |----o-------o---|----o-------o---|----o-------o---|----o-------o---|
    B |o-------o-o-----|o-------o-o-----|o-------o-o-----|o-------o-o-----|
    
      |_______4x_______|                
    C |X---------------|X---------------|
    H |--x-x-x-x-x-x-x-|----------------|
    S |----o-------o---|-------oo-o-ooo-|
    B |o-------o-o-----|o------
  • Batería
    Esta tablatura es para los que no le entendieron muy
    bien a la otra que esta. Sigan el ritmo de la cancion
    para que la puedan sacar, esta muuuy facil. Pueden 
    hacer variaciones como alguna abertura de contratiempo
    o un redoble suyo, ustedes sabran como quieren tocar la 
    rola. (OJO: es la primera tablatura que saco para 
    bateria, puedo cometer errores. En este caso, mandenme 
    un mail para notificar).
    
    B= bombo
    C= contratiempo
    Ca= contratiempo abierto
    T= tarola
    R= ride
    CR= crash
    *= golpe
    
    Este es el ritmo inicial (versos):
    C|*-*-|*-*-|*-*-|*-*-|*-*-|*-*-|*-*-|*-*-|*-*-|*-*-|
    T|----|*---|----|*---|----|*---|----|*---|----|*---|
    B|*---|----|*-*-|----|*---|----|*-*-|----|*---|----|
    
    Para cambiar al pre-coro, solo se da un crash y en
    igual de pegarle al contratiempo le dan al ride:
    R|*-*-|*-*-|*-*-|*-*-|*-*-|*-*-|*-*-|*-*-|*-*-|*-*-|
    T|----|*---|----|*---|----|*---|----|*---|----|*---|
    B|*---|----|*-*-|----|*---|----|*-*-|----|*---|----|
    
    Y el unico redoble de la 
  • Batería
    esta rola esta bien simple todo esta en el ritmo
    y nada mas 
    
    td:tonton derecho
    ti:tonton izquierod
    ch:chrles
    p:platillos
    b:Bombo
    t:tarola
    
    Arranca con un platillaso despues del solo 
    pero denle con sentimiento algo asi 
    
    T T TD TD TI TI TI P
    el platilo bien asentuado
    
    el acompañamiento al comienzo es bien calea es 
    decir bien disimulado 
    
    CH CH CH CH 
              T
    
    tu me dices que te deje ahora ahora
    ahora cuando mas te necesito.....
    
    ahora cunado llegas a
    P
    tu me haz dicho que esta amor a sido en vano
    P
    que malo que dices eso pero que buneop que se acabo
    
    al comienzo das el platillo bien fuerte 
    
    ahora cuando empieza el coro es otra cosa aqui
    si hay que meterle sentimientoel acompñamiento es asi:
    
    CH CH CH CH ...
        T     T
    
    pero cuando se toca el charles se levanta al segundo 
    golpe escuchen la canion y se van a dar cuenta
    
    Bueno gente eso es todo y saludos a todos mis patas
    aca de lima a david marisel agusto fiorella 
    ana ce renzo dante
  • +
    ¡Colabora con nosotros!
    Envíanos tu versión de esta canción
  • Tutorial
    HD
    Mala gente - Juanes: SOLO GUITARRA TAB #7
    0:25

Letra de Mala Gente
Tu me pides que te deje ahora, ahora
Ahora cuando más te necesito
Tu me dices que este amor se fue al olvido ahora
Ahora cuando yo ya no te olvido
Tu me pides que seamos solo amigos, amigos
Porque a mi no me interesa ser tu amigo
Tu me dices que este amor ha sido en vano
Que malo que dices eso, pero que bueno que se acabó.
Mala gente, te burlaste de mis
sentimientos y ahora te lamentas.
Mala gente, vas a pagarla caro
porque a mi ya no me interesas
Mala gente, porque tu eres una
mentirosa y una mala gente.
¡En el infierno enterita enterita te vas a quemar!
ESTE ES EL SOLO NO SUENA A LA PERFECCION PERO SUENA
PAVO!!!!!!!! ESTE ES:

Tu me pides que regrese ahora,ahora
y ahora es a mi a quien no le importa,
tu me pides que seamos mas que amigos, amigos
y amigos para que si no hay cariño
hoy por fin me dado cuenta de tu engaño
de tu mala calaña y tano mal que me hiciste tu
Mala gente te burlaste..................

Videos de Mala Gente
[ver más videos]

[ver todas las canciones]


© LaCuerda.net · Aviso Legal · Privacidad