Acordes de Guitarra » J »Juanes » Fotografia (Tab)

Fotografia
Juanes

Letras, Acordes y Tabs para Guitarra, Bajo y Ukulele

  • Intro    G  Am  G/B  C   G  D/F#   Em  D             G/B    X20030
    
    
     G      Am          G/B               C      G
    Cada vez, que yo me voy, llevo a un lado de mi piel,
      D/F#      Em        D          G
    tus fotografías, para verlas cada vez,
    Am             G/B           C          G
    que tu ausencia me devora entero el corazón,
     D/F#          Em       D           G
    y yo no tengo remedio más, que amarte.
    
    PRECORO
    D/F#        Em        D     G
    Y en la distancia, te puedo ver,
    D/F#        Em   D             G
    cuando tus fotos, me siento a ver.
    D/F#        Em     D           G
    Y en las estrellas, tus ojos ver,
    D/F#        Em   D             G
    
  •  G       D              Em     D          G
    Cada vez q yo me voy llevo a un lado de mi piel
         D       Em        D       G
    tus fotografias para verlas cada vez
             D        Em           D        G
    que tu ausencia me devora entero el corazón
          D        Em        D      
    y yo no tengo remedio más que amarte.
    
      G    D   Em       D        G
    Y en la distancia te puedo ver
        D       Em        D     G
    cuando tus fotos me siento a ver
        D      Em        D      G
    y en las estrellas tus ojos ver
        D      Em        D        G
    cuando tus fotos me siento a ver.
    
       G             D      Em
    Cada vez que te busco te vas
    
  •   G     Am        Bm               C           G
    tus fotografías para verlas cada vez
     D/F#       Em         D           G
    que tu ausencia me devora entero el corazón
      Am            Bm            C          G
    y yo no tengo remedio más que amarte.
    D/F#            Em       D     
    
    
       Y en la distancia te puedo ver
    G  D/F#        Em   D          G
         cuando tus fotos me siento a ver
    D/F#           Em  D             G
      y en las estrellas tus ojos ver
    D/F#          Em    D          G
        cuando tus fotos me siento a ver.
    D/F#           Em   D             G
    
    G Am G C
    G Am Bm C
    
  • G        Am7     Bm7
    Cada vez q yo me voy
    C9                    G
    llevo a un lado de mi piel
    D/F#        Em       D/F#        G
    tus fotografias para verlas cada vez
    G               Am7         Bm7         C9
    Que tu ausencia me devora entero el corazón
    G               D/F#       Em      D/F#
    Y yo no tengo remedio más
    G
    que amarte
    
    
    G          D/F#
    Y en la distancia
    Em       D/F#
    te puedo ver
    G          D/F#
    cuando tus fotos 
    
  • Intro    G  Am  G/B  D   G  D/F#   Em  D             G/B    X20030
    
    
     G      Am          G               D      G
    Cada vez, que yo me voy, llevo a un lado de mi piel,
      D/F#      Em        D          G
    tus fotografías, para verlas cada vez,
    Am             G           D          G
    que tu ausencia me devora entero el corazón,
     D            Em        D           G
    y yo no tengo remedio más, que amarte.
    
    PRECORO
    D/F#        Em        D     G
    Y en la distancia, te puedo ver,
    D        Em   D             G
    cuando tus fotos, me siento a ver.
    D/F#        Em     D           G
    Y en las estrellas, tus ojos ver,
    D        Em   D             G
    
  •  G       D/F#      Em           C                  G
    Cada vez que yo me voy, llevo a un lado de mi piel,
    1. ---------------------------------------------------|
    2. -----3---------3---------0---------1---------3-----|
    3. -------0---------2---------0---------0---------0---|
    4. ---0-----0---0-----0---2-----2---2-----0---0-----0-|
    5. ---------------------------------------------------|
    6. -3---------2---------0---------0---------3---------|
    D/F#       Em           C          G
    tus fotografías, para verlas cada vez,
    1. ------------------------------------------|
    2. ------3---------0---------1---------3-----|
    3. --------2---------0---------0---------0---|
    4. ----0-----0---2-----2---2-----0---0-----0-|
    5. ------------------------------------------|
    6. --2---------0---------0---------3---------|
    D/F#            Em         C             G
    qué tu ausencia me devora entero el corazón,
    1. ------------------------------------------|
    2. ------3---------0---------1---------3-----|
    
  • |-3-----------------0-------------0-------------------|
    |-3---3-----2-----0---0---0-----1---1---1-------------|
    |-0-0---2-------0-------0-----0-------0---------------|
    |-----------------------------------------------------|
    |---------------------------3-------------------------|
    |-3---2---2---0---------------------------------------|
    
    |------2--------|
    |----3---3---3--|
    |--2-------2----|
    |0--------------|      <--- Se toca 2 veces
    |---------------|
    |---------------|
    
    
    Guitarra II
    
    |-----2-0----|
    |---3-----3--|
    |-0----------|       Ésto es lo que se oye
    
  • E||--------------------------|----------------------------|
    B||--3----------3------------|----------------------------|
    G||-----4-2--0-----0-----0---|-----0----0--------------0--|
    D||-------------------4------|--2----0--------2-0----0----|
    A||--------------------------|-------------3------2-------|
    E||--------------------------|----------------------------|
    
    
                                                                      
    -----------------------|--2--------0----------|
    ---------3-------------|-----------------3----|
    -------0---------------|----------------------|
    ----4------------------|----------------------|
    -----------------------|----------------------|
    -----------------------|----------------------|
    
    Guitarra Acustica
    
                                                                 x2
    E||-----------------------------|----------------------------|
    
  • +
    ¡Colabora con nosotros!
    Envíanos tu versión de esta canción
  • Tutorial
    HD
    Fotografía - Juanes (guitarra acústica)
    como tocar
    1:42

Letra de Fotografia
Cada vez q yo me voy llevo a un lado de mi piel
tus fotografias para verlas cada vez
que tu ausencia me devora entero el corazón
y yo no tengo remedio más que amarte.
Y en la distancia te puedo ver
cuando tus fotos me siento a ver
y en las estrellas tus ojos ver
cuando tus fotos me siento a ver.
Cada vez que te busco te vas
y cada vez que te llamo no estás
es por eso que debo decir que tú sólo en
mis fotos estás.
Cuando hay un abismo desnudo
que se opone entre los dos
yo me valgo del recuerdo taciturno de tu voz
Y de nuevo siento enfermo el corazón
que no le queda remedio más que amarte
Y en la distancia te puedo ver
cuando tus fotos me siento a ver
y en las estrellas tus ojos ver
cuando tus fotos me siento a ver
Cada vez que te busco te vas
y cada vez que te llamo no estás
es por eso que debo decir que tú sólo en
mis fotos estás.
Toda la cancion lleva los mismos acordes G D Em D G, por
eso no los puse en todos los versos. Practicamente esta bien facil
asi q espero les sirva de mucho esta transcripcion. Personalmente
la cancion me encanto, me gusto tanto q decidi sacarla y compartirla.
No es lo mismo escuchar una cancion q poderla cantar y tocar ya sea con
la guitarra o cualquier otro instrumento,no se siente igual.




[Fotografia chords][Fotografia cifra]
© LaCuerda.net · aviso legal · privacidad · es · en · pt · contacto