Tablatura para Guitarra de Juanes: Mala Gente
Conexión · Inscripción
Letras y Acordes
Pantalla Completa
Imprimir
Versión Texto
Añadir Favorito
Otras Versiones

Mostrar Diagramas
Desfile Automático
Manipular Acordes
Formato del Texto


Mala Gente(TAB)

Juanes

calidad:
juan0182
AUTOR: Letra Juanes
ALBUM: Un Día Normal
Enviado por Juan
INTRO:
e|-------------------------------------------|
b|-------------------------------------------|
g|----7-4-4-6-7-4-6-7-6---4-3-3-4-6-3-4-6-4--|
d|-------------------------------------------|
a|-------------------------------------------|
e|-------------------------------------------|


Solo:
e|----------------------------------------------------------|
b|----------------------------------------------------------|
g|-13vibrado-12-11-10-11-12-11-9----------------------------|
d|-------------------------------12-11-9-9-9-9-9-8-9-11-9-8-|
a|----------------------------------------------------------|
E|----------------------------------------------------------|

e|---------------------------------------------------------------------|
b|---------------------------------------------------------------------|
g|---------------------------------------------------------------------|
d|-8-9-8-9-11-9-8------------------------------------------------9-9-8-|
a|----------------10-9-7-----------------------------------9-9-9------7|
E|-----------------------10-9--7-7-7-7-7-6-7--7-7-7-7-7-10-------------|


e|--------------------------------------------------------------------------|
b|--------------------------------------------------------------------------|
g|--------------------------------------------------11-11-11--------11-11-11|
d|-11--11-11-11-14-12-11---11-12-11-12-11—14----16-16-16-14-----16-16-16|
a|--------------------------------------------------------------------------|
E|--------------------------------------------------------------------------|


e|--------------------------------------------------------------------|
B|--------------------------------------------------------------------|
G|------11-11-11-------11-11-11-------11----9-9-9-9-7---7-9-7-9/11----|
D|14b16-16-16-14b16-16-16-14n16--11----------11-----------------------|
A|--------------------------------------------------------------------|
E|--------------------------------------------------------------------|

esta rola esta muy chida y el tab muy facil, solo pongan atencion a la
version original
dudas y aclaraciones a mi correo
cuidense banda
Este fichero es trabajo propio de su transcriptor y representa su interpretación personal de la canción. El material contenido en esta página es
para exclusivo uso privado, por lo que se prohibe su reproducción o retransmisión, así como su uso para fines comerciales.

© LaCuerda.net · Aviso Legal · Privacidad