Tablatura para Guitarra de Juanes: Mala Gente
Conexión · Inscripción
Letras y Acordes
Pantalla Completa
Imprimir
Versión Texto
Añadir Favorito
Otras Versiones

Mostrar Diagramas
Desfile Automático
Manipular Acordes
Formato del Texto


Mala Gente(TAB)

Juanes

calidad:
juan0184
AUTOR: Letra Juanes
ALBUM: Un Día Normal
Enviado por katracho
Saludos amigos y disfruten de este super solo!

         Mordido
e|----------------------------------------------------------------|
B|-/9vib-8-7-6-7-7h8-7--------------------------------------------|
G|---------------------9-7-6vib-7-6h7p6/4-6-4h6p4-3-2vib----------|
D|----------------------------------------------------------------|
A|----------------------------------------------------------------|
E|----------------------------------------------------------------|

e|----------------------------------------------------------------|
B|----------------------------------------------------------------|
G|---3-3---3-4/6/4-3----------------------------------------------|
D|-5-----5-----------5-4-2----------------------------------------|
A|-------------------------5-4-2-1-2-1----------------------5-----|
E|-------------------------------------3-2vib-3-2-3-2--5/7--------|


e|----------------------------------------------------7--------7--|
B|-------------------3-3h5-3-------------------------7--------7---|
G|-----------4-3-4-6---------/6vib-7-6---6---7-9b(11)---9b(11)----|
D|-----2-4-4---------------------------9---9----------------------|
A|-2-5------------------------------------------------------------|
E|----------------------------------------------------------------|


e|--------7------7------------------------------------------------|
B|-------7------7-------------------------------------------------|
G|-9b(11)—9b(11)—9b(11)9p7---7---9-9-9-9---9p7---7-9-7-9/11vib----|
D|--------------------------9-----------------9-------------------|
A|----------------------------------------------------------------|
E|----------------------------------------------------------------|

Bueno amigos este solo es de mucha tecnica grabada con una guitarra
fender y pues les recomiendo que escuchen muchas veces el cd ya que
juanes usa bastante la tecnica de golpear fuerte cada nota y bastante
mordido y eso es lo que le produce un sabor latino muy delicioso a
la hora de hacer sus solos!
Este fichero es trabajo propio de su transcriptor y representa su interpretación personal de la canción. El material contenido en esta página es
para exclusivo uso privado, por lo que se prohibe su reproducción o retransmisión, así como su uso para fines comerciales.

© LaCuerda.net · Aviso Legal · Privacidad