Tablatura para Bajo de Juanes: Mala Gente
Conexión · Inscripción
Letras y Acordes
Pantalla Completa
Imprimir
Versión Texto
Añadir Favorito
Otras Versiones

Mostrar Diagramas
Desfile Automático
Formato del Texto


Mala Gente(BAJ)

Juanes

calidad:
juan0185
AUTOR: Letra Juanes
ALBUM: Un Día Normal
Enviado por Juan
Este es el tab del bajo, espero que les quede bien, y pongan 
atención a las entradas en el coro y solo

Verso:

G |------|----------------------------|----------------------------|
D |------|------------4---------------|------------4---------------|
A |-14/2-|-2-22---2-2--------------4--|-2-22---2-2--------------4--|
E |------|--------------2-22---2-2----|--------------2-22---2-2----|

G |----------------------------|--------------------------|
D |------------4---------------|------------4-----------2-|
A |-2-22---2-2--------------4--|-2-22---2-2------2--4-----|
E |--------------2-22---2-2----|--------------2-----------|

G |----------------------------|--------------------------|
D |------------4---------------|-----------4-----------2--|
A |-2-22---2-2--------------4--|-2-22---2-2------2--4-----|
E |--------------2-22---2-2----|--------------2-----------|

Pre Coro:

G |--------------------|------------------------|
D |-------5--------4---|-------5-----------4----|
A |-----5--------4-----|-----5-------2--4-----2-|
E |-3--------2---------|-3--------2-------------|

Coro:

En esta parte arrastras de SI a SI cuando la batería 
hace el redoble antes de entrar al coro, 
para que saques mejor oye el disco

G |------|----------------------------|----------------------------|
D |------|------------4---------------|------------4---------------|
A |-2/14-|-2-22---2-2--------------4--|-2-22---2-2--------------4--|
E |------|--------------2-22---2-2----|--------------2-22---2-2----|

G |----------------------------|-----------------------|
D |------------4---------------|------------------4----|
A |-2-22---2-2--------------4--|------------2--4-----2-|
E |--------------2-22---2-2----|-3-------2-------------|

Solo:

El slide es igual que en la entrada al Coro.

G |------|----------------------------|----------------------------|
D |------|------------4---------------|------------4---------------|
A |-2/14-|-2-22---2-2--------------4--|-2-22---2-2--------------4--|
E |------|--------------2-22---2-2----|--------------2-22---2-2----|

G |----------------------------|----------------------------|
D |------------4---------------|-----------4-----------2----|
A |-2-22---2-2--------------4--|-2-22---2-2------2--4-----2-|
E |--------------2-22---2-2----|--------------2-------------|
Verso 2:

En esta parte entras cuando la voz llega a la parte de 
“ ahora es a mi a quien no le importa” escucha el disco 
para que la entiendas mejor.

G |-------|----------------------------|--------------------------|
D |-------|------------4---------------|------------4-----------2-|
A |-------|-2-22---2-2--------------4--|-2-22---2-2-------2--4----|
E |-33-22-|--------------2-22---2-2----|---------------2----------|

Pre Coro 2:

G |--------------------|------------------------|
D |-------5--------4---|-------5-----------4----|
A |-----5--------4-----|-----5-------2--4-----2-|
E |-3--------2---------|-3--------2-------------|

Coro 2:

El slide es el mismo del primer coro

G |------|----------------------------|----------------------------|
D |------|------------4---------------|------------4---------------|
A |-2/14-|-2-22---2-2--------------4--|-2-22---2-2--------------4--|
E |------|--------------2-22---2-2----|--------------2-22---2-2----|

G |----------------------------|--------------------|
D |------------4---------------|-------5--------4---|
A |-2-22---2-2--------------4--|----5--------4------|
E |--------------2-22---2-2----|-3--------2---------|

G |----------------------------|----------------------------|
D |------------4---------------|------------4---------------|
A |-2-22---2-2--------------4--|-2-22---2-2--------------4--|
E |--------------2-22---2-2----|--------------2-22---2-2----|

G |----------------------------|--------------------|
D |------------4---------------|-------5--------4---|
A |-2-22---2-2--------------4--|----5--------4------|
E |--------------2-22---2-2----|-3--------2---------|

G |----------------------------|----------------------------|
D |------------4---------------|------------4---------------|
A |-2-22---2-2--------------4--|-2-22---2-2--------------4--|
E |--------------2-22---2-2----|--------------2-22---2-2----|

G |----------------------------|------------------------|
D |------------4---------------|-------5-----------4----|
A |-2-22---2-2--------------4--|----5--------2--4-----2-|
E |--------------2-22---2-2----|-3--------2-------------|

Bueno, hay lo tienen espero que les guste el tab, cualquier sugerencia,
comentario, o lo que sea escríbanme a juanjose@etapaonline.com.ec y 
que viva ¡¡¡ECUADOR!!!!
Este fichero es trabajo propio de su transcriptor y representa su interpretación personal de la canción. El material contenido en esta página es
para exclusivo uso privado, por lo que se prohibe su reproducción o retransmisión, así como su uso para fines comerciales.

© LaCuerda.net · Aviso Legal · Privacidad