Acordes de Guitarra » J »Juanes » A Dios le pido (Tab)

A Dios le pido
Juanes

Letras, Acordes y Tabs para Guitarra, Bajo y Ukulele

  • Am
    Que mis ojos se despierten
                       E 
    con la luz de tu mirada 
    yo a Dios le pido
    
    Am                 Dm 
    que mi madre no se muera
                   E 
    y que mi padre me recuerde 
    a Dios le pido 
    
    Am                 Dm
    Que te quedes a mi lado
                    E  
    y que más nunca te me vayas mi vida 
    a Dios le pido 
    Am              Dm
    que mi alma no descanse
                 E 
    
  • E|-5--5-5-5-8-8-8-|------------------------------|
    B|-5--5-5-5-5-5-8-|------------------------------|
    G|-5--5-5-5-5-5-5-|---4-7-7----4-7-7----4-7------|
    D|----------------|-6--------6--------6-----6--7-|
    A|----------------|------------------------------|
    e|----------------|------------------------------|(X2)
    
    E|----------------------------|------------------------------|
    B|-----5---5-------5---5------|------------------------------|
    G|---5---5---5---5---5----7-4-|---4-7-7----4-7-7----4-7------|
    D|-7-----------7--------------|-6--------6--------6-----6--7-|
    A|----------------------------|------------------------------|
    e|----------------------------|------------------------------|
    
    E|-----------5-----5---5-4-0-|-----7-10-8-7----8-7---------|
    B|-----5---5---5-----5-------|---9----------10-----10-9-10-|
    G|---5---5-------5-----------|-9---------------------------|
    D|-7-------------------------|-----------------------------|
    A|---------------------------|-----------------------------|
    e|---------------------------|-----------------------------|
    
  • E|-5--5-5--8-8-8--5-5-5--5-5-|------------------------------------|
    B|-5--5-5--5-5-5--5-5-5--5-5-|------------------------------------|
    G|-5--5-5--5-5-5--5-5-5--5-5-|---4-7-7p4---4-7-7p4---4-7-7p4------|
    D|-7--7-7--7-7-7--7-7-7--7-7-|-6---------6---------6---------6-7.-|
    A|---------------------------|------------------------------------|
    E|---------------------------|------------------------------------|(X2)
    
    E|-------------------------------|---------------------------|
    B|-----5.--5.------5.--5.--------|---------------------------|
    G|---5.--5.--5.--5.--5.---7-4----|----4-7-7p4---4-7-7p4------|
    D|-7.----------7.-------------6~-|--6---------6---------6-7.-|
    A|-------------------------------|---------------------------|
    E|-------------------------------|---------------------------|
    
    E|-------------5------5.---5.-4----|---4-7-7/10-8-7----8-7----------------|
    B|------5----5---5.------5------5~-|-5--------------10-----9-10-9/10~~~~~-|
    G|----5---5.--------5--------------|--------------------------------------|
    D|-7.------------------------------|--------------------------------------|
    A|---------------------------------|--------------------------------------|
    E|---------------------------------|--------------------------------------|
    
  • e-x-5---x---5-5---x---8-8-8---x---5-5-5---x---5-5-----------------------
    B-x-5---x---5-5---x---5-5-5---x---5-5-5---x---5-5-----------------------
    G-x-5---x---5-5---x---5-5-5---x---5-5-5---x---5-5-----------------------
    D-x-7---x---7-7---x---7-7-7---x---7-7-7---x---7-7-----------------------
    A-----------------------------------------------------------------------
    E-----------------------------------------------------------------------
    
    
    e-----------------------------------------------------------------------
    B-----------------------------------------------------------------------
    G-----4---7---7p4-----4---7---7p4-----4---7---7p4-----------------------
    D-6---------------6---------------6---------------6---7.----------------
    A-----------------------------------------------------------------------
    E-----------------------------------------------------------------------
    
    
    e-x-5---x---5-5---x---8-8-8---x---5-5-5---x---5-5-----------------------
    B-x-5---x---5-5---x---5-5-5---x---5-5-5---x---5-5-----------------------
    G-x-5---x---5-5---x---5-5-5---x---5-5-5---x---5-5-----------------------
    D-x-7---x---7-7---x---7-7-7---x---7-7-7---x---7-7-----------------------
    
  • E|-5-5-5-8-8-8-5-5-5-5-5-4|-----------------------------|
    B|-5-5-5-------5-5-5-5-5--|-----------------------------|
    G|-5-5-5-------5-5-5-5-5--|-----4-7-4---4-7-4--4-7-4----|
    D|------------------------|---6-------6-------6------6-7|
    A|------------------------|-----------------------------|
    E|------------------------|-----------------------------|
    
    E|-5-5-5-8-8-8-5-5-5-5-5-4|-----------------------------|
    B|-5-5-5-------5-5-5-5-5--|-----------------------------|
    G|-5-5-5-------5-5-5-5-5--|-----4-7-4---4-7-4--4-7-4----|
    D|------------------------|---6-------6-------6------6-7|
    A|------------------------|-----------------------------|
    E|------------------------|-----------------------------|
    
    E|-----------------------------------------------|
    B|-----5---5-------5---5-------------------------|
    G|---5---5---5---5---5---7-4-----4-7-7--4-7-7----|
    D|-7-----------7-------------6-6------6------6-7-|
    A|-----------------------------------------------|
    E|-----------------------------------------------|
    
  • e|-5-5-5--8-8-8--5-5-5-5-5--4|-----------------------------------|
    B|-5-5-5--8-8-8--5-5-5-5-5--4|-----------------------------------|
    G|-5-5-5---------5-5-5-5-5---|-----4-7-7-4---4-7-7-4---4-7-7-4---|
    D|---------------------------|---6---------6---------6--------6-7|
    A|---------------------------|-----------------------------------|
    E|---------------------------|-----------------------------------|
    
    e|-5-5-5--8-8-8--5-5-5-5-5--4|-----------------------------------|
    B|-5-5-5--8-8-8--5-5-5-5-5--4|-----------------------------------|
    G|-5-5-5---------5-5-5-5-5---|-----4-7-7-4---4-7-7-4---4-7-7-4---|
    D|---------------------------|---6---------6---------6--------6-7|
    A|---------------------------|-----------------------------------|
    E|---------------------------|-----------------------------------|
    
    e|----------------------------------------------------|
    B|-----5---5-------5---5------------------------------|
    G|---5---5---5---5---5---5------4-7-7-4---4-7-7-4-----|
    D|-7-----------7-------------6-6--------6---------6-7-|
    A|----------------------------------------------------|
    E|----------------------------------------------------|
    
  • Intro: Am - E7
    
    E|-5-5-5--8-8-8--5-5-5-4--|--------------------------------|
    B|-5-5-5--5-5-5--5-5-5----|--------------------------------|
    G|-5-5-5--5-5-5--5-5-5----|---4-7-7----4-7-7----4-7-7------|
    D|-7-7-7--7-7-7--7-7-7----|-6--------6--------6-------6--7-|
    A|------------------------|--------------------------------|
    e|------------------------|--------------------------------|(X2)
    
    E|-----------------------------|-------------------------|
    B|-----5---5-------5---5-------|-------------------------|
    G|---5---5-------5---5---7-5-4-|---4-7-7----4-7-7--------|
    D|-7---------6^7---------------|-6--------6--------6-7---|
    A|-----------------------------|-------------------------|
    e|-----------------------------|-------------------------|
    
    E|-----------5-------5-4----|-----7-10-8-7----8-7---------|
    B|-----5---5---5---------5--|---9----------10-----10-9-10-|
    G|---5---5-------5----------|-9---------------------------|
    D|-7---------------7--------|-----------------------------|
    
  • Introducción:
    
    
    4 VECES:
    g------------------------------------------/
    d------------------------------------------/
    a------------------------------------------/
    E--5--5--5--5--0--0--0--0------------------/
    
    
    
    
    
    			I ESTROFA
    
    g------------------------------------------/
    d------------------------------------------/
    a------------------------------------------/
    E---5--------------------------------------/
    
       Que mis ojos se despierten con la luz de tu mirada yo
    
    
    g------------------------------------------/
    d------------------------------------------/
    a------------------------------------------/
    E----------------5-------------------------/
    
          a Dios le pido
    
    
    
    g------------------------------------------------------/
    d------------------------------------------------------/
    a-------------------5-------------5--------------------/
    E-------5-------------------------------0---0-----0---0/
    
    que mi madre no se muera y que mi padre me recuerde 
    
    g-------
  • +
    ¡Colabora con nosotros!
    Envíanos tu versión de esta canción
  • Tutorial
    Como tocar "A Dios le Pido" de Juanes - Tutorial Guitarra (Acordes + TAB)
    HD
    10:00
  • Tutorial
    HD
    Como tocar A Dios Le Pido - Juanes - en Guitarra Acustica (HD)
    Tutorial
    7:58

Letra de A Dios le pido
Que mis ojos se despierten
con la luz de tu mirada
yo a Dios le pido
que mi madre no se muera
y que mi padre me recuerde
a Dios le pido
Que te quedes a mi lado
y que más nunca te me vayas mi vida
a Dios le pido
que mi alma no descanse
cuando de amarte se trate mi cielo
a Dios le pido
Por los días que me quedan
y las noches que aun no llegan
yo a Dios le pido
por los hijos de mis hijos
y los hijos de tus hijos
a Dios le pido
Que mi pueblo no derrame tanta sangre
y se levante mi gente
a Dios le pido
que mi alma no descanse
cuando de amarte se trate mi cielo
a Dios le pido
Un segundo mas de vida para darte
y mi corazón entero entregarte
un segundo mas de vida para darte
y a tu lado para siempre yo quedarme
un segundo mas de vida
yo a Dios le pido
Que si me muero sea de amor
y si me enamoro sea de vos
y que de tu voz sea este corazón
todos los días a Dios le pido
que si me muero sea de amor
y si me enamoro sea de vos
y que de tu voz sea este corazón
todos los días a Dios le pido
a Dios le pido
Facil de sacar cierto???




[A Dios le pido chords][A Dios le pido cifra]
© LaCuerda.net · aviso legal · privacidad · es · en · pt · contacto