Acordes de Guitarra » J »Juanes » Nada valgo sin tu amor (Tab)

Nada valgo sin tu amor
Juanes

Letras, Acordes y Tabs para Guitarra, Bajo y Ukulele

  • (SOL,FA,MIm,REm)van con bajo en la 4a y llevan un solo arpegio,
    sin regresarlo.
    
                     DO                 SOL
    cuando el tiempo pasa y nos hacemos viejos
           LAm(bajo en 5a y 6a)               FA
    nos empieza a parecer, que pesan mas los daños,
                   RE      SOL,FA,MIm,REm
    que los mismos años, al final
                DO                  SOL          LAm
    por eso yo quiero que mis años pasen junto a ti, mi amor eterno
                  FA                 RE        SOL,FA,MIm,REm
    junto a mi familia, junto a mis amigos y mi voz
                  LAm              DO 
    porque nada valgo, porque nada tengo
       LAm7          RE    FA            DO    (SOL,FA,MIm,REm)
    si no tengo lo mejor, tu amor y compañía en mi corazón.
                   DO           SOL                LAm
    Y es que vale más un año tardío que un siglo vacío, amor
                   FA            RE         SOL,FA,MIm,REm
    
  • D7/F# = 2xx212            Am2   = **6555            Am4   = **4555
    Am1   = **7555            Am3   = **5555
    
    
                  C                  G              Am
    Cuando el tiempo pasa y nos hacemos viejos nos empieza a parecer
                  F                  D7/F#         G
    que pesan más lo daños que los mismos años, al final
               C               G                  Am
    por eso yo quiero que mis años pasen junto a ti, mi amor eterno
                F            D7/F#         G
    junto a mi familia, junto a mis amigos y mi voz
               Am1            Am2
    porque nada valgo, porque nada tengo
     Am3           Am4         F            C          G
    si no tengo lo mejor: tu amor y compañía en mi corazón.
                C           G                  Am
    Y es que vale más un año tardío que un siglo vacío, amor
                F        D7/F#                     G
    y es que vale más tener bien llenito el corazón
    
  •     Em7 Am7 Fmaj7 Dadd9 G* Am7*  D*
    1|----------------------------------
    2|---3---1----1-----3---3---1----0--
    3|---0---0----2-----2---4---0----0--
    4|---0---2----3-----4---5---2----x--
    5|---2---0----x-----x---x---x----5--
    6|----------------------------------
    
                      C                   Em7
    Cuando el tiempo pasa y nos hacemos viejos
           Am7
    nos empieza a parecer
                       Fmaj7               Dadd9  G*     Fmaj7 Am7*
    que pesan más los daños que los mismos años   al final,
    
     D*          C                  Em7
    Por eso yo quiero que mis años pasen
             Am7
    junto a ti mi amor eterno
                  Fmaj7              Dadd9  G*     Fmaj7  Am7*
    
  •                   C                   G/B
    Cuando el tiempo pasa y nos hacemos viejos
           Am7             Am7  G
    nos empieza a parecer
                       Fmaj7               F/F#  G     Fmaj7 Em7
    que pesan más los daños que los mismos años   al final,
    
    Dm         C                     G/B
    Por eso yo quiero que mis años pasen
             Am7          Am7  G
    junto a ti mi amor eterno
                   Fmaj7               F/F#  G     Fmaj7 Em7
    junto A MI familia junto A mis amigos   y mi voz,
    
    --Pre-coro--
    
    
    
    Dm          Am                 Ammaj7
    Porque nada valgo porque nada tengo
    
  • e|---------------------------------------------------------------
    B|-------1-----------------3---------------1-----1-------1-------
    G|-----0---0---0.--------0---0---0.------2---2-----2---2---2-----
    D|---2-------2---------0-------0-------2-------2-----2-------2---
    A|-3-----------------2---------------0-------------------------0.
    E|---------------------------------------------------------------
    
      que pesan más lo daños que los mismos años, al final
    e|------------------------------------------------------------
    B|------1---------------3-------------0-3-----0-3-----0-3-----
    G|----0---0---0.------0---0---0.----0-------0-------0---------
    D|--2-------2-------0-------0-----5-------3-------2-------0.--
    A|3---------------2-------------------------------------------
    E|------------------------------------------------------------
    
      por eso yo quiero que mis años pasen junto a ti, mi amor eterno
    e|---------------------------------------------------------------
    B|-------1-----------------3---------------1-----1-------1-------
    G|-----0---0---0.--------0---0---0.------2---2-----2---2---2-----
    D|---2-------2---------0-------0-------2-------2-----2-------2---
    
  •                    C                   G              Am
      Cuando el tiempo pasa y nos hacemos   viejos  nos    empieza a parecer
      e---------------I-------------------I---------------I--------------------------I
      B---------------I---------1---------I------3--------I-------1------------------I
      G---------------I------0--------0---I----0-------0--I-----2-------0------0-----I
      D---------------I---2---------2---2-I--0-------0--0-I---2-------2---2--2---2---I
      A---------------I-3-----------------I-2-------------I-0------------------------I
      E---------------I-------------------I---------------I--------------------------I
    
                          F                     D           G         F        E
       que pesan mas los daños que los mismos  años       al final
      e------------------I--------------------I-----------I--------------------------I
      B--------------1---I-------1------------I-----------I---8---------6--------5---I
      G-------0---2------I-----2----------2---I-------7---I-----7---------5--------4-I
      D---2--------------I---3----------3---3-I---7-----7-I-5---------3--------2-----I
      A------------------I-3------------------I-5---5-----I--------------------------I
      E------------------I--------------------I-----------I--------------------------I
    
         D               C                 G               Am
        por eso yo quiero que mis años pasen   juanto       ti mi amor eterno
    
  •             C
    E|---------------------|
    B|------1-------1------|
    G|----0-------0--------|
    D|----------2----------|
    A|--3------------------|
    E|---------------------|
    
                Em
    E|---------------------|
    B|------3-------1------|
    G|----0-------0--------|
    D|----------0----------|
    A|--2------------------|
    E|---------------------|
    
                Am
    E|------------------------------------|
    B|------1-------1------1------1-------|
    G|----2-------2------2------2---------|
    
  • Juanes: nada valgo
    
    Cundo el tiempo pasa y nos hacemos viejos
    Nos empieza a parecer que pesan mas los daños
    Que los mismo años
    Al final
    
    G-------------------------------------------/
    D-------------------------------------------/
    A------9--8--7--6--5------------------------/
    E-------------------------------------------/
    
    Por eso yo quiero que mis años pasen
    Junto a ti mi amor eterno,
    Juntos a mi familia,
    Junto a mis amigos y mi voz
    
    G--------------------------------------------/
    D--------------------------------------------/
    A------5-6-5----7--8--9------9-8-7-6--5-5----/
    E--------------------------------------------/
    
    Porque nada valgo
    Porque nada tengo
    Si no tengo lo mejor
    Tu amor y compañía
    En mi corazón
    
    G--------------------------------------------/
    D--------------------------------------------/
    A--5-6-5----7--8--9-------9-8-7-6-5----------/
    E--------------------------------------------/
    
    Y es que vale mas un año tardío
    Que un siglo vació, 
  • Esta la linea del bajo de la canción, muy buena por cierto...
    Juanes de las mayores influencias que hay en Latinoamerica y
    aqui una vez más demuestra todo su talento.
    
    Es una pena no tener alguien a quien dedicarsela pero en todo caso
    va para mis amigos de la banda... Dollar 15...
    
    Afinación Standar E
    
    ^= mantener la nota
    
    Comienza en 'por eso yo quiero...'
    
    G|----------------------------------------------------|
    D|----------------------------------------------------|
    A|--5-3^----------------5^--------5-3-----------------|
    E|--------3^--5^--3-1^------3-1-0---------------------|
    
    en el puente ' Porque nada valgo..'
    
    G|----------------------------------------------------|
    D|------7--6--5--4------------------------------------|
    A|------0--0--0--0------3--------5--------------------|
    E|-------------------1-----3-1-0----------------------|
    
    En la parte 'Y es que vale mas....'
    
    G|----------------------------------------------------|
    D|--------------------------
  • +
    ¡Colabora con nosotros!
    Envíanos tu versión de esta canción
  • Tutorial
    HD
    Como tocar Nada Valgo Sin Tu Amor en Guitarra (HD)
    Tutorial
    6:06
  • Tutorial
    HD
    Cómo tocar Nada Valgo sin tu amor - Juanes
    cómo tocar #24
    Cómo tocar nada valgo
    8:33

Letra de Nada valgo sin tu amor
sin regresarlo.
cuando el tiempo pasa y nos hacemos viejos
nos empieza a parecer, que pesan mas los daños,
que los mismos años, al final
por eso yo quiero que mis años pasen junto a ti, mi amor eterno
junto a mi familia, junto a mis amigos y mi voz
porque nada valgo, porque nada tengo
si no tengo lo mejor, tu amor y compañía en mi corazón.
Y es que vale más un año tardío que un siglo vacío, amor
y es que vale más tener bien llenito el corazón
por eso yo quiero que en mi mente siempre
tu cariño esté bien fuerte
aunque estemos lejos, aunque estemos cerca del final.
Precoro:
porque nada valgo, porque nada tengo
si no tengo lo mejor tu amor y compañía en mi corazón
ven amor
Me siento débil cuando estoy sin ti
y me hago fuerte cuando estás aquí
sin ti yo ya no sé qué es vivir, mi vida es un túnel sin tu luz
quiero pasar más tiempo junto a ti
recuperar las noches que perdí
vencer el miedo inmenso de morir y ser eterno junto a ti,
porque nada valgo, porque nada tengo
si no tengo lo mejor tu amor y compañía en mi corazón
por eso yo quiero que en mi mente siempre
tu cariño esté bien fuerte
aunque estemos lejos, aunque estemos cerca del final.
Precoro:
porque nada valgo, porque nada tengo
si no tengo lo mejor tu amor y compañía en mi corazón
ven amor
Me siento débil cuando estoy sin ti
y me hago fuerte cuando estás aquí
sin ti yo ya no sé qué es vivir, mi vida es un túnel sin tu luz
quiero pasar más tiempo junto a ti
recuperar las noches que perdí
vencer el miedo inmenso de morir y ser eterno junto a ti,
porque nada valgo, porque nada tengo
si no tengo lo mejor tu amor y compañía en mi corazón
dudas, comentarios, criticas, etc. hay ta mi correo:
guicho_lui@hotmail.com




[Nada valgo sin tu amor chords][Nada valgo sin tu amor cifra]
© LaCuerda.net · aviso legal · privacidad · es · en · pt · contacto