Acordes de Guitarra » H »Hombres G » Vete de mí (Tab)

Vete de mí
Hombres G

Letras, Acordes y Tabs para Guitarra, Bajo y Ukulele

  • Intro: DO SOLm DO Sol…
    
            SOL
    Ya no tienes que hablar
          MIm
    ni mentir ni llorar
            LAm                    DO
    ¿no ves q ya lo hemos perdido todo?
              SOL
    me pides una oportunidad
              MIm
    no sé q quieres alargar
              LAm               DO
    y yo a tu lado me siento tan solo
    
    Do/Sol/Lam
    
    yo no puedo esperar
    ni un sólo minuto más
    para intentar empezar de cero
    
  • SOL
    Ya no tienes que hablar
    MIm
    Ni mentir, ni llorar
    LAm                              DO
    No vez que ya lo hemos perdido todo
    SOL                                        MIm
    Me pides una oportunidad, no se que quieres alargar
    LAm                             DO-DO-SI-LAm
    Y yo a tu lado me siento tan solo.
    
    SOL                                    MIm
    Yo no puedo esperar ni un solo minuto más
    LAm                         DO
    Para intentar empezar de cero
    SOL
    Nadie te conoce como yo
    MIm
    Y te deseo lo mejor
    LAm                               DO
    
  • Vete de mi..
    ya no hables más...
    Vete de mi...
    
    E--------------------------------------------------------3-5-5-3--
    B---3/5-3/5-3/5-3/5--5/7-8-7-8-----------------------3h5----------
    G------------------------------7--4-5-4-5-4-5-4-5-4---------------
    
    
    E---5/7-10-10-10------7-10-10-10--10h12-10h12-10h12-10h12---------
    B-----------------8-10--------------------------------------------
    G-----------------------------------------------------------------
    
    E---15-14----------15-14------------------------------------------
    B---------15-12--12-----15-12---------12-15-12/15---10/12---------
    G-----------------------------14-12-14------------12--------7-7-7-
    
    E---15-14-----------15-14-15-17-----------------------------------
    B---------15-12-13------------------------------------------------
    G-----------------------------------------------------------------
    
    ... y ya verás como en muy poco tiempo
    ya no te importará que habrá sido de mí...
    
    Vete de mi, vete de mi...
  • +
    ¡Colabora con nosotros!
    Envíanos tu versión de esta canción

Letra de Vete de mí
Ya no tienes que hablar
Ni mentir, ni llorar
No vez que ya lo hemos perdido todo
Me pides una oportunidad, no se que quieres alargar
Y yo a tu lado me siento tan solo.
Yo no puedo esperar ni un solo minuto más
Para intentar empezar de cero
Nadie te conoce como yo
Y te deseo lo mejor
Sabes como te quise y como te quiero,
Estoy harto de gritos, no quiero seguir
Necesito vivir…
Vete de mí, vete de mí
Yo ya no puedo aguantar más
Vete de mí
No puedo continuar viendo mi vida pasar
Entre la lluvia el odio y el silencio
Yo si te digo la verdad, quiero que se acabe de una vez
Tiene que haber algo mejor que esto
Tú crees que te necesito… y no es así
Necesito vivir…
Vete de mí, vete de mí
Yo ya no puedo aguantar más
Vete de mí
Ya no lo puedo soportar
Vete de mí
Y es que existe una vida aparte de ti
déjame que la pueda vivir
Yo me iré con mi vida muy lejos de aquí
Y ya veras como en muy poco tiempo
No te acordaras ni de quien fui
Vete de mí
ya no hables más
Vete de mí
Y ya veras como en muy poco tiempo
Ya no te importara que habrá sido de mí
Vete de mí, vete de mí
Yo ya no puedo aguantar más
Vete de mí
Ya no lo puedo soportar vete de mi
Ya no hables más
Aunque a Lau no le guste...por la temática
(obvio), aún así se la dedico...como todas.
I love you very much




[Vete de mí chords][Vete de mí cifra]
© LaCuerda.net · aviso legal · privacidad · es · en · pt · contacto
DINAMICO