Acordes de Guitarra » H »Hombres G » un minuto nada más (Tab)

un minuto nada más
Hombres G

Letras, Acordes y Tabs para Guitarra, Bajo y Ukulele

  • intro: (G F C G) D (G F C G)
    C
    Abrazame
               G
    antes de caer
        D              C                G  
    aprietame en tus brazos por ultima vez.
    C         
    Escuchame
                   G
    antes de que grite
     D            C            G
    dame solo un beso antes de irte
    
    
    CORO
    
          Am      F        G
    Dame solo un poco de tiempo
          D         G
    
  • D    Dsus
    
      D                 F#m
    ABRAZAME   ANTES DE CAER
       G             A                  D Dsus D
    APRIETAME EN TUS BRAZOS POR ULTIMA VEZ
      D                     F#m
    ESCUCHAME ANTES DE QUE GRITE
    G            A               D   Dsus D
    DAME SOLO UN BESO ANTES DE IRTE
    
           G     A         D
    DAME SOLO UN POCO DE TIEMPO
         C         G
    UN MINUTO NADAMAS
           A     G         A
    SOLO QUIERO PENSAR Y PEDIRTE…
    
    D          D7
    UN MINUTO NADAMAS
    
  • intro: D
    D
    Abrazame
               F#m
    antes de caer
        G              A                D
    aprietame en tus brazos por ultima vez.
    D
    Escuchame
                   F#m
    antes de que grite
    G            C             D
    dame solo un beso antes de irte
    
    
    CORO
    
          G      A        D
    Dame solo un poco de tiempo
          Bm  F#m  G
    
  •     C      D     D(10)   D(5)   D(2)  Dsus4     D7     D6    G(3)    A
    
    e|--0------2------10------5------2------3-------2------2------3------0--|
    B|--1------3------10------7------3------3-------1------3------3------2--|
    G|--0------2------11------7------2------2-------2------4------4------2--|
    D|--2------0------12------7------4------0-------0------0------5------2--|
    A|--3------0------12------5------5------0-------0------0------5------0--|
    E|--3------x------10------5------2------x-------x------x------3------0--|
    
        A7    A(5)   A7(5)   Bm
    
    e|--0------5------5------2--|
    B|--2------5------5------3--|
    G|--0------6------6------4--|
    D|--2------7------5------4--|
    A|--0------7------7------2--|
    B|--0------5------5------2--|
    
    
    Parece complicado, pero simplemente el número entre paréntesis
    
  • +
    ¡Colabora con nosotros!
    Envíanos tu versión de esta canción

Letra de un minuto nada más
Abrazame
antes de caer
aprietame en tus brazos por ultima vez.
Escuchame
antes de que grite
dame solo un beso antes de irte
Dame solo un poco de tiempo
un minuto nada mas
un minuto nada mas
el tiempo justo de poder mezclar
mis besos con tus lagrimas
y poderte abrazar.
Un minuto nada mas
para estar juntos y poder hablar
dame solo un minuto
y no llores mas.
Perdoname
por olvidar
como pedir perdon a quien se quiere de verdad
y mirame
no hay mas que hablar
asomate a mi vida y llenala.




[un minuto nada más chords][un minuto nada más cifra]
© LaCuerda.net · aviso legal · privacidad · es · en · pt · contacto