Tablatura de Hombres G: Temblando
David Summers
Baladas
Intro:

Para facilitarles el tocarla pueden acomodar sus dedos de esta forma:
Traste
  9  10  11  12
6|---|---|---|---|
5|-o-|---|---|---|
4|-o-|---|-o-|---|
3|-o-|---|---|---|
2|-o-|-o-|---|-+-|para que el meñique(+)sea
1|-o-|---|---|-+-|el que se mueva(en algunos casos 
                  debes subir o bajar dedos
                                                                            Tembla..
1|-12---------------9-------------------------------------9-----------------------||
2|----------10--------12-10-10-------12--------------------12-10-10-------12---10-||
3|-------9--------9-------------------------9-9-------9-----------------9---------||
4|----11--------------------------11-11-------------11---------------11---11---11-||
5|-------------------------------9----------9-9----9------------------------------||
6|--------------------------------------------------------------------------------||

verso:
                                           con....
||---------------------------------------------------9-----------
||-----------------------------------------------------12-10-10--
||------9------------9--11---9-------------9---9---9-------------
||---11-----------11--------------11----11-----------------------
||-9-----------12-------12--12-------12----12--9-----------------
||---------------------------------------------------------------

                                                   * tocar sin presionar totalmente
                   nublado.....                                     al traste                     
------------------------------------------------------------------------*21---||
-----------12-------12--10---------------12-----9-----------------------*21---||
-----11---------9-----------9---------9------10-------------------------------|| 
---9-------11-------11--11----11---11----11-----11----------------------------||
------------------9--------------9--------------------------------------------||
------------------------------------------------------------------------------||

   hablando.....
  ||--9-----------------9-12-10-----------------9-----------9-10----
  ||--------------10-12--------------12-------10-------10-12--------
  ||--9--------9-------------------9---------9--------9-------------
  ||--------11------------------11---11----11-------11--------------
  ||------9---------------------------------------------------------
  ||----------------------------------------------------------------

            ordenar
------------------------------------------------------------------------------- 
--12-----------12-10--9-10-----12-10--9-10------12-10--9-10------12-10--9-10---
-----------9------------------------------------------------------------------- 
--------11-----11-11-11-11-----11-11-11-11--11--11-11-11-11--11--11-11-11-11--- 
------9---------------------9-------------------------------------------------- 
------------------------------------------------------------------------------- 

      yoooo........                            sigo....                   ....
 
----------------------------------------------9-12----------------------------||
------10---------------------------------10-12-------------------------9-10---||
-------------------------------------9-11--------------------------9-11-------||
--11--11------------------------11-12-------------------------11-12-----------||
----------------------------9-12--------------------------9-12----------------||
--------------------------9---------------------------------------------------||

||-12-------------------9----------------------------||
||-----------10-----------12-10-10----------12-------||
||---------9---------9-------------------------------||   X2
||-----11--------------------------------11-11-------||
||--------------------------------------9------------||
||---------------------------------------------------||

espero que les guste y ojala y le agarren la onda porque suena bien. Tambien 
hasta ahí la saque para no hacerlos tantas bolas de todas formas pienso que
toda la canción se va por esos trastes.
Este fichero es trabajo propio de su transcriptor y representa su interpretación personal de la canción. El material contenido en esta página es
para exclusivo uso privado, por lo que se prohibe su reproducción o retransmisión, así como su uso para fines comerciales.
© LaCuerda.net · aviso legal · privacidad · contacto