Tablatura para Guitarra de Extremoduro: Jesucristo García
Conexión · Inscripción
Letras y Acordes
Pantalla Completa
Imprimir
Versión Texto
Añadir Favorito
Otras Versiones

Mostrar Diagramas
Desfile Automático
Manipular Acordes
Formato del Texto


Jesucristo García(TAB)

Extremoduro

calidad:
extr0157
AUTOR: Roberto Iniesta
ALBUM: Grandes Exitos y Fracasos: Episodio 1
Enviado por Canutito99
Intro:                                                                       x2
e|--------------------------------------------------------------------------|
B|---------------------------------------------------------------3----------|
G|----------0------------0-----------------------------------3-----------2--|
D|------4-0---4------4-0-----------7-5-9-7-----7-5-9-------3-----------2----|
A|----2------------2-------------5-----------5-----------5-----------4------|
E|--2--------------------------5-----------------------3-----------2--------|

  Punteo:
e|---------------------------------------------------------------------------
B|-----------7/5--5------------7-8-8/10-8-7------------------7-------------7-
G|--9^--7-9---------7-6---------------------9-7----------7-------------7-----
D|----------------------7-9------------------------9-7-9---9-----9-7-9---9---
A|---------------------------------------------------------------------------
E|---------------------------------------------------------------------------


e|-------------------------------------------||
B|------------10--8-7-7p8h7---7--------------||
G|--------7---------------------7------------||
D|--9-7-9---9---------------------7-9--------||
A|------------------------------------7-9----||
E|-------------------------------------------||

e|-----------------------------------------------------
B|--12---------------12-----12-------------------------
G|-----11---------11-----------11---------11/13-11~----
D|--------12-9-12-----------------12-9-12--------------
A|-----------------------------------------------------
E|-----------------------------------------------------

 Cuanto mas necesito para ser Dios, Dios, Dios...

e|---------------7p10-7----7-10-7----10h7----7h5----------------------
B|----------7-10--------10----------------10------7-10h7----------7-7-
G|--9^----7-------------------------------------------------7-9-7-----
D|--------------------------------------------------------------------
A|--------------------------------------------------------------------
E|--------------------------------------------------------------------


e|--------------------------------------------------------------------|
B|--------------7------7-10-8-7----7-10-8-7----7-10-8-7---------------|
G|------7-6-7-9-----------------------------------------9-7-6---------|
D|--9-9-------------------------------------------------------9-------|
A|--------------------------------------------------------------------|
E|--------------------------------------------------------------------|

Esto va dedicado a mi amiga Noelia, Te quiero.
Este fichero es trabajo propio de su transcriptor y representa su interpretación personal de la canción. El material contenido en esta página es
para exclusivo uso privado, por lo que se prohibe su reproducción o retransmisión, así como su uso para fines comerciales.

© LaCuerda.net · Aviso Legal · Privacidad