Acordes de Guitarra » E »Extremoduro » Puta (Tab)

Puta
Extremoduro

Letras, Acordes y Tabs para Guitarra, Bajo y Ukulele

  •      LAm
    Yo sigo la fuerza, recorro las horas
                       FA                     SOL
    no me encuentra el día si no encuentro su boca
                   LAm
    diciendo venga venga que me vuelvo loca
                    FA               SOL
    y ando entre su pelo y hay un agujero
                  FA      SOL              LAm
    me subo a las estrellas y me tiro de cabeza
    
                      FA                   SOL
    Subí al árbol mas alto que tiene la Alameda
                  LAm                     SOL
    y vi miles de ojos dentro de mis tinieblas
                   FA                   SOL
    nosotras no la vemos las hormigas comentan
                     LAm                     SOL
    mezcladas con mi vista solo alcanzan la hierba
    
    
  • LA5  DO5  LA5  MI  (x4)
    
    00:20
    LA5  LA5  DO5  SI5
    LA5  LA5
    |-------------
    |-6-----3-----
    |--5---3------
    |---5-3-------
    |-------------
    |-------------
      (x2)
    
    
    00:37
    LA5  LA5  DO5  MI5
    LA5  LA5  DO5  SI5 (x4)
    
    oo:58
    RIFF PRINCIPALx2
    
  • ***BORRAR ESTO DESPUES DE LEERLO***********************************************************
    Esto es lo que he podido sacar de esta canción, si alguien se saca más por ahi que no dude 
    en enviarmelo a:"solaniko txiko@hotmail.com", para sugerencias.
    ***BORRAR ESTO DESPUES DE LEERLO***********************************************************
    
    [0:20]
    
    Riff 1 (1º parte)
    e||---------------------------------------------------------------------||
    B||--------------------------------------------------------5------------||
    G||*---------------------------------------------------------5-------3-*||
    D||*----5------5------4------4------4/5------5------5----------5---3---*||
    A||-0-0-3--0-0-3--0-0-2--0-0-2--0-0-2/3--0-0-3--0-0-3--0-0-------3------||
    E||---------------------------------------------------------------------||
    
    
    Riff 1 (2º parte)
    e||---------------------------------------------------------------|
    B||---------------------------------------------------------------|
    G||-
  • e--------------3----------------------------------3-------------------
    b-----------3--3------------------------------3---3-------------------
    g---5---4---4--4----------------------5---4---4---4h5h4---------------
    d---5---5---3--3-(x3)-----0------0----5---5---3---3-------------------
    a-0---0-----5--5--------------------0---0-----5---5-------------------
    e---------3--3------1h1-----1h4-------------3---3---------------------
    
    e---------------3---------------------3--------------------------
    b-----------3---3h5h3------------3---3----------------3-----------
    g---5---4---4---4-------5---4----4---4h5h4----5---4---4-----------
    d---5---5---3---3-------5---5----3---3--------5---5---3-----------
    a-0---0-----5---5-----0---0------5---5------0---0-----5----------
    e---------3---3---------------3----3----------------3------------
    
    Ahora entra la primera guitarra eléctrica con distorsión:
    
    e-----------------------------------------------------------
    b--------------------------------------------------6--3^^^^^
    g-----5-----5------4-----4------4^^5------5----5---5--3------
    d-----5-----5------4-----4------4^^5------5----5---5--3-(x2)-
    
  • NOTA:
    
    Espero y te ayude en algo esta tab.
    
    Si necesitas una tab en especial, escríbeme o visita...
    
    myspace.com/alejandrolauyola
    
    
    G||-------|-------|-------|-------|-------|-------|-------|-------|
    D||-------|-------|-------|-------|-------|-------|-------|-------|
    A||-------|-------|-------|-------|-------|-------|-------|-------|
    E||-------|-------|-------|-------|-------|-------|-------|-------|
    
    
    -------|-------|-------|-------|-------|-------|-------|-------|
    -------|-------|-------|-------|-------|-------|-------|-------|
    -------|-------|-------|-------|-------|-------|-------|-------|
    -------|-------|-------|-------|-------|-------|-------|-------|
    
    
    -------|-------|-------|-------|-------|-------|-------|-------|
    -------|-------|-------|-------|-------|-------|-------|-------|
    -------|-------|-------|-------|-------|-------|-------|-------|
    -------|-------|-------|-------|-------|-------|-------|-------|
    
    
                              E  E  E  E  E  E  E  E
    -------|-------|----
  • +
    ¡Colabora con nosotros!
    Envíanos tu versión de esta canción

Letra de Puta
Yo sigo la fuerza, recorro las horas
no me encuentra el día si no encuentro su boca
diciendo venga venga que me vuelvo loca
y ando entre su pelo y hay un agujero
me subo a las estrellas y me tiro de cabeza
Subí al árbol mas alto que tiene la Alameda
y vi miles de ojos dentro de mis tinieblas
nosotras no la vemos las hormigas comentan
mezcladas con mi vista solo alcanzan la hierba
que nada me interesa del alrededor
me subo a lo más alto de la locura
encuentro a mi princesa hablando con la luna
hechándose carreras haber quien es más....puta
que no me da la gana pasar media vida
buscando esa frase que tal vez no exista
no me mira y que cojones puedo decir
mi perro ya no quiere la comida
mi cabeza pasa el día buscándote yeye
Llego a tus rincones llenos de flores
por mis esquinas llenas de colores
sa desvocao la primavera, la noche entera
yeyeye yeyeye
Bebo de una fuente, caliente caliente
y vuelvo a ver al hada que nunca me abandona
cuando no estoy contigo no me explico las horas
y hago que den gritos, hago que corran
Que no me da la gana pasar media vida
buscando esa droga que quizás no exista
no me digas hoy que no me mira
si no me viene a ver una sonrisa
y se me salen dando pedales
sin mi permiso una lagrimilla
no me digas hoy que no me mira
si no me viene a ver una sonrisa
y se me salen dando pedales
sin mi permiso una lagrimilla
Llego a tus rincones llenos de flores
por mis esquinas llenas de colores
sa desvocao la primavera, la noche entera
yeyeye yeyeye




[Puta chords][Puta cifra]
© LaCuerda.net · aviso legal · privacidad · es · en · pt · contacto