Tablatura para Bajo de Extremoduro: Jesucristo García
Conexión · Inscripción
Letras y Acordes
Pantalla Completa
Imprimir
Versión Texto
Añadir Favorito
Otras Versiones

Mostrar Diagramas
Desfile Automático
Formato del Texto


Jesucristo García(BAJ)

Extremoduro

calidad:
extr0156
AUTOR: Roberto Iniesta
ALBUM: Grandes Exitos y Fracasos: Episodio 1
Enviado por Luke, basado en nOoKIE*
G||---------------------|-------||---------------------|-------||
D||*--------------------|------*||*--------------------|------*||
A||*-------2------------|------*||*-------5------------|------*||
E||---2-----------------|-------||---5-----------------|-------||


--------------------|-------------------|-------------------|------|
-------5------------|-------------------|----4--------------|------|
--5-----------------|----------------4--|-------------------|------|
--------------------|-------------------|-------------------|------|


|---------------------|-------||---------------------|-------||
|*--------------------|------*||*--------------------|------*||
|*-------2------------|------*||*-------5------------|------*||
|---2-----------------|-------||---5-----------------|-------||


--------------------|-------------------|-------------------|------|
-------5------------|-------------------|----4--------------|------|
--5-----------------|----------------4--|-------------------|------|
--------------------|-------------------|-------------------|------|


--------------------|--------------------|---------------------|
--------------------|-----------------4--|--5------------5--4--|
--2------------4----|--5-----------7-----|---------------------|
--------------------|--------------------|---------------------|


----------------------|--------------------|--------------------|
------------5---------|--------------------|----------------4---|
----------------5--0--|--2-------------4---|--5----------7------|
----------------------|--------------------|--------------------|


---------------------|----------------------|--------------------|
--5-----------5---4--|----------------0-----|--------------------|
---------------------|-------------------0--|--2------------4----|
---------------------|----------------------|--------------------|


--------------------|---------------------|----------------------|
-----------------4--|--5-----------5--4---|-----------5---0------|
--5----------7------|---------------------|-------------------0--|
--------------------|---------------------|----------------------|


--------------------|--------------------|---------------------|
--------------------|-----------------4--|--5--------------4---|
--2------------4----|--5-----------7-----|---------------------|
--------------------|--------------------|---------------------|


----------------------|--------------------|--------------------|
----------------------|--------------------|--------------------|
-----------------0----|--2------------4----|--5------------5----|
----------------------|--------------------|--------------------|


---------------------|----------------------|--------------------|
---------------------|----------------------|--------------------|
---------------------|-------------------0--|--2------------4----|
--3----------3--2----|----------2---3-------|--------------------|


--------------------|---------------------|----------------------|
--------------------|---------------------|-------4---2---0------|
--5------------5----|---------------------|------------------0---|
--------------------|--3----------3--2----|----------------------|


--------------------|--------------------|---------------------|
--------------------|--------------------|---------------------|
--2------------4----|--5------------5----|---------------------|
--------------------|--------------------|--3--------3----2----|


----------------------|--------------------|--------------------|
----------4----0------|--------------------|--------------------|
-------------------0--|--2-----------------|--5-----------------|
----------------------|--------------------|---------------3----|


---------------------|----------------------|--------------------|
---------------------|------4------2--0-----|--------------------|
---------------------|-------------------0--|--2------------0----|
--3--------0----2----|----------------------|--------------------|


--------------------|---------------------|----------------------|
--------------------|---------------------|----------------------|
--5------------5----|---------------------|----------------0--2--|
--------------------|--3--------2----2----|----------0--2--------|


--------------------|--------------------|---------------------|
--------------------|--------------------|---------------------|
--2------------5----|--5------------5----|---------------------|
--------------------|--------------------|--3--------3----2----|


----------------------|--------------------|--------------------|
----------------------|--------------------|--------------------|
----------------0-----|--2-----------2--4--|--5------------5----|
----------2--0--------|--------------------|--------------------|


---------------------|----------------------|--------------------|
---------------------|------4---2---0-------|--------------------|
---------------------|----------------0-----|--2------------0----|
--3--------3----2----|----------------------|--------------------|


--------------------|---------------------|------------------|
--------------------|---------------------|------------------|
--5------------5----|---------------------|------------------|
--------------------|--3--------3----2----|------------------|


----------------|----------------|----------------|----------------|
----------------|----------------|----------------|----------------|
----------------|----------------|----------------|----------------|
----------------|----------------|----------------|----------------|


----------------|----------------|----------------|----------------|
----------------|----------------|----------------|----------------|
----------------|----------------|----------------|----------------|
----------------|----------------|----------------|----------------|


--------------------------|--------------------------|
--------------------------|--------------------------|
--------------------------|--5--5--5--5--------------|
--3--3--3--3--3--3--3--3--|--------------5--5--5--5--|



-------------------------|------------------|------------------------|
-------------------------|--4--4--4--5------|------------------------|
-------------------------|------------------|-5--5--5--5--5--5--5--5-|
-7--7--7--7--7--7--7--7--|------------------|-3--3--3--3--3--3--3--3-|


--------------------------|--------------------------|
--4--4--4--4--4--4--4--4--|--------------------------|
--2--2--2--2--2--2--2--2--|--7--7--7--7--7--7--7--7--|
--------------------------|--5--5--5--5--5--5--5--5--|



-4--4--4--4--4--4--4--4-|-4--4--4--4--4--4--4--4-|-------------------|
-2--2--2--2--2--2--2--2-|-2--2--2--2--2--2--2--2-|-------------------|
------------------------|------------------------|-2--2--0--5---5----|
------------------------|------------------------|-----------------0-|


--------------------|------------------------|---------------------|
--------------------|------------------------|---------------------|
--------------------|--2----2--0--5----5-----|---------------------|
--3----0--2---------|---------------------0--|--3----0--2----------|


-----------------------|--------------------|-----------------------|
-----------------------|--------------------|-----------------------|
-2----2--0--5----5-----|--------------------|-2----2--0--5----5-----|
--------------------0--|--3----0--2---------|--------------------0--|


---------------------|------------------------|---------------------|
---------------------|------------------------|---------------------|
---------------------|--2----2--0--5----5-----|---------------------|
--3----0--2----------|---------------------0--|--3----0--2----------|


-----------------------|--------------------|-----------------------|
-----------------------|--------------------|-----------------------|
-2----2--0--5----5-----|--------------------|-2----2--0--5----5-----|
--------------------0--|--3----0--2---------|--------------------0--|


---------------------|------------------------|---------------------|
---------------------|------------------------|---------------------|
---------------------|--2----2--0--5----5-----|---------------------|
--3----0--2----------|---------------------0--|--3----0--2----------|


--------------------|--------------------|---------------------|
--------------------|-----------------4--|--5------------5--4--|
--2------------4----|--5-----------7-----|---------------------|
--------------------|--------------------|---------------------|


----------------------|--------------------|--------------------|
------------5---------|--------------------|----------------4---|
----------------5--0--|--2-------------4---|--5----------7------|
----------------------|--------------------|--------------------|


---------------------|----------------------|--------------------|
--5-----------5---4--|----------------0-----|--------------------|
---------------------|-------------------0--|--2------------4----|
---------------------|----------------------|--------------------|


--------------------|---------------------|----------------------|
-----------------4--|--5-----------5--4---|-----------5---0------|
--5----------7------|---------------------|-------------------0--|
--------------------|---------------------|----------------------|


--------------------|--------------------|---------------------|
--------------------|-----------------4--|--5--------------4---|
--2------------4----|--5-----------7-----|---------------------|
--------------------|--------------------|---------------------|


----------------------|--------------------|--------------------|
----------------------|--------------------|--------------------|
-----------------0----|--2------------4----|--5------------5----|
----------------------|--------------------|--------------------|


---------------------|----------------------|--------------------|
---------------------|----------------------|--------------------|
---------------------|-------------------0--|--2------------4----|
--3----------3--2----|----------2---3-------|--------------------|


--------------------|---------------------|----------------------|
--------------------|---------------------|-------4---2---0------|
--5------------5----|---------------------|------------------0---|
--------------------|--3----------3--2----|----------------------|


--------------------|--------------------|---------------------|
--------------------|--------------------|---------------------|
--2------------4----|--5------------5----|---------------------|
--------------------|--------------------|--3--------3----2----|


----------------------|--------------------|--------------------|
----------4----0------|--------------------|--------------------|
-------------------0--|--2-----------------|--5-----------------|
----------------------|--------------------|---------------3----|


---------------------|----------------------|--------------------|
---------------------|------4------2--0-----|--------------------|
---------------------|-------------------0--|--2------------0----|
--3--------0----2----|----------------------|--------------------|


--------------------|---------------------|----------------------|
--------------------|---------------------|----------------------|
--5------------5----|---------------------|----------------0--2--|
--------------------|--3--------2----2----|----------0--2--------|


--------------------|--------------------|---------------------|
--------------------|--------------------|---------------------|
--2------------5----|--5------------5----|---------------------|
--------------------|--------------------|--3--------3----2----|



----------------------|--------------------|--------------------|
----------------------|--------------------|--------------------|
----------------0-----|--2-----------2--4--|--5------------5----|
----------2--0--------|--------------------|--------------------|


---------------------|----------------------|--------------------|
---------------------|------4---2---0-------|--------------------|
---------------------|----------------0-----|--2------------0----|
--3--------3----2----|----------------------|--------------------|


--------------------|---------------------|------------------|
--------------------|---------------------|------------------|
--5------------5----|---------------------|------------------|
--------------------|--3--------3----2----|------------------|



----------------|----------------|----------------|----------------|
----------------|----------------|----------------|----------------|
----------------|----------------|----------------|----------------|
----------------|----------------|----------------|----------------|


----------------|----------------|----------------|----------------|
----------------|----------------|----------------|----------------|
----------------|----------------|----------------|----------------|
----------------|----------------|----------------|----------------|


--------------------------|--------------------------|
--------------------------|--------------------------|
--------------------------|--5--5--5--5--------------|
--3--3--3--3--3--3--3--3--|--------------5--5--5--5--|


-------------------------|---------------------|------------------------|
-------------------------|-4--4--4--5----------|------------------------|
-------------------------|---------------------|-5--5--5--5--5--5--5-5--|
-7--7--7--7--7--7--7--7--|---------------------|-3--3--3--3--3--3--3-3--|


--------------------------|--------------------------|
--4--4--4--4--4--4--4--4--|--------------------------|
--2--2--2--2--2--2--2--2--|--7--7--7--7--7--7--7--7--|
--------------------------|--5--5--5--5--5--5--5--5--|



-4--4--4--4--4--4--4--4-|-4--4--4--4--4--4--4--4-|----------------------|
-2--2--2--2--2--2--2--2-|-2--2--2--2--2--2--2--2-|----------------------|
------------------------|------------------------|-2----2--0--5----5----|
------------------------|------------------------|--------------------0-|


---------------------|------------------------|---------------------|
---------------------|------------------------|---------------------|
---------------------|--2----2--0--5----5-----|---------------------|
--3----0--2----------|---------------------0--|--3----0--2----------|


-----------------------|--------------------|-----------------------|
-----------------------|--------------------|-----------------------|
-2----2--0--5----5-----|--------------------|-2----2--0--5----5-----|
--------------------0--|--3----0--2---------|--------------------0--|


--------------------|------------------------|---------------------|
--------------------|------------------------|---------------------|
--------------------|--2----2--0--5----5-----|---------------------|
-3----0--2----------|---------------------0--|--3----0--2----------|


----------------------|---------------------|----------------------|
----------------------|---------------------|----------------------|
-2----2--0--5----5----|---------------------|-2----2--0--5----5----|
--------------------0-|--3----0--2----------|--------------------0-|


---------------------|------------------------|---------------------|
---------------------|------------------------|---------------------|
---------------------|--2----2--0--5----5-----|---------------------|
--3----0--2----------|---------------------0--|--3----0--2----------|
Este fichero es trabajo propio de su transcriptor y representa su interpretación personal de la canción. El material contenido en esta página es
para exclusivo uso privado, por lo que se prohibe su reproducción o retransmisión, así como su uso para fines comerciales.

© LaCuerda.net · Aviso Legal · Privacidad