Tablatura para Guitarra de Extremoduro: Jesucristo García
Conexión · Inscripción
Letras y Acordes
Pantalla Completa
Imprimir
Versión Texto
Añadir Favorito
Otras Versiones

Mostrar Diagramas
Desfile Automático
Manipular Acordes
Formato del Texto


Jesucristo García(TAB)

Extremoduro

calidad:
extr0152
AUTOR: Roberto Iniesta
ALBUM: Grandes Exitos y Fracasos: Episodio 1
Enviado por andrescobedo
I(e)  -|----------------|--------------|---------------|-------------|
II(B) -|----------------|--------------|---------0-----|-------0-----|
III(G)-|---------0------|-------0------|-------0-------|-----0---0---|
IV(D) -|-------0---0----|-----0---0----|-----7--------|---7--------7-|
V(A)  -|-----9-------9--|---9-------9--|-0-5---------5-|-5-----------|
VI(E) -|-2-7------------|-7------------|---------------|-------------|

I(e)  -|----------------|--------------|
II(B) -|----------------|-------2------|  (se repite 2 veces)
III(G)-|---------3------|-------2------|
IV(D) -|-0-----3--------|-----2--------|
V(A)  -|-----5----------|---4----------|
VI(E) -|---3------------|-2------------|


Punteo:
e|---------------------------------------------------------------------------
B|-----------7/5--5------------7-8-8/10-8-7------------------7-------------7-
G|--9^--7-9---------7-6---------------------9-7----------7-------------7-----
D|----------------------7-9------------------------9-7-9---9-----9-7-9---9---
A|---------------------------------------------------------------------------
E|---------------------------------------------------------------------------


e|-------------------------------------------||
B|------------10--8-7-7p8h7---7--------------||
G|--------7---------------------7------------||
D|--9-7-9---9---------------------7-9--------||
A|------------------------------------7-9----||
E|-------------------------------------------||


Bm D G F# Bm D G F# Concreté la fecha de mi muerte con Satán.
Bm D G F# Bm D G F# Le engañé y ahora no hay quien me pare, ya los pies.
Bm D G F# Bm D G F# Razonar, es siempre tan difícil para mí.
Bm D G F# Bm D G F# Qué más da, si al final todo me sale siempre bien, del revés.
G D A Nací un buen día, mi madre no era virgen,
Bm F# G no vino el rey, tampoco me importó
G Bm hago milagros, convierto el agua en vino
A E me resucito si me hago un canutito.
G D A Soy Evaristo el rey de la baraja,
Bm F# G vivo entre rejas, antes era chapista,
G Bm los mercaderes ocuparon mi templo
A E y me aplicaron ley antiterrorista.
Bm D G F# Bm D G F# ¿Cuánto más necesito para ser dios, dios, dios?
Bm D G F# Bm D G F# ¿Cuánto más necesito convencer?
Bm D G F# Bm D G F# ¿Cuánto más necesito para ser dios, dios, dios?
Bm D G F# Bm D G F# ¿Cuánto más necesito convencer?
Este fichero es trabajo propio de su transcriptor y representa su interpretación personal de la canción. El material contenido en esta página es
para exclusivo uso privado, por lo que se prohibe su reproducción o retransmisión, así como su uso para fines comerciales.

© LaCuerda.net · Aviso Legal · Privacidad