Acordes de Guitarra » C »Charly García » Ojos de Video Tape (Tab)

Ojos de Video Tape
Charly García

Letras, Acordes y Tabs para Guitarra, Bajo y Ukulele

  •      Fmaj7     Em7      Bb/F       Em7      C7
    E---0----0-----------------1----1--------------------------------------/
    B---1---1------3---0-3-----3---3------3-1-------0---------3-1-1--------/
    G---2--2-------0--0--------3--3-------0---3-----0---0-----2-0-0-2-2-0--/
    D---3----------2-----------3----------2---------2-2-------------2-2-0-0/
    A-----------------------------------------------3----------------------/
    E----------------------------------------------------------------------/
    
    
    Fmaj7  Cmaj7        Fmaj7        Cmaj7
    No     tengo agua caliente en el calefón
    
    Fmaj7  Cmaj7          Fmaj7     Cmaj7     Eb/F   F/Eb
    No     tengo que escribir   canciones de amor
    
       Bbadd9 G        C    F     G
    No ves,      que espero resucitar
    
             Am    Em7  Dm7       F
    Mientras miras esos ojos de videotape
    
  •    Fmaj7   G/F     Ebadd9 Bbmaj7 Cmaj7
    e|-0-----0-------------------------------|
    B|-1-------3-----3-6-----6-3-1---0-------|
    G|-2---2---4---4---3---3---2---3-0-----0-|
    D|-3-3-----5-5-----5-5-----3-----2-0-2---|
    A|-----------------6-------1-----3-------|
    E|---------------------------------------|
    
    e|-----------------|
    B|-----------------|
    G|-2-0-0-----------|
    D|-------2-2-0-0---|
    A|---------------3-|
    E|-----------------|
    
    
    Fmaj7 Cmaj7         Fmaj7       Cmaj7
    No    tengo agua caliente en el calefón,
    Fmaj7 Cmaj7         Fmaj7    Cmaj7     Eb/F F/Eb
    no    tengo que escribir canciones de amor.
    
  • Fmaj7  Cmaj7         Fmaj7
       No tengo agua caliente
          Cmaj7
    en el calefon
    Fmaj7   Cmaj7
        No tengo que
         Fmaj7   Cmaj7     Eb/F   F/Eb
    escribir canciones de amor
    
       Bbmaj7 G/B
    No ves... es
          C/E   F    Gsus4(o F/G) - G (resuelve el retardo 4-3)
    que espero resucitar
               Am    Em/G
    mientras miras esos
    Dm7      F/G
    ojos de video tape
    
    
    Ya llega aquel examen del bien y el mal
    
  • +
    ¡Colabora con nosotros!
    Envíanos tu versión de esta canción

Letra de Ojos de Video Tape
No tengo agua caliente
en el calefon
No tengo que
escribir canciones de amor
No ves... es
que espero resucitar
mientras miras esos
ojos de video tape
Ya llega aquel examen del bien y el mal
ya llegan las noticias
cruzando el mar
No ves
que el mundo gira al revés
mientras miras esos
ojos de video tape
Este mundo extrañara por siempre
la película que vi una vez
y este mundo te dirá que siempre
es mejor mirar a la pared.
Ya tienes las postales del Paraguay
ya tienes las valijas sobre el diván
Te vas
El mundo gira al revés
mientras miras esos
ojos de video tape
Este mundo extrañara por siempre...
Cualquier consultita, me mandan un e-mail a:
lucianosoda@hotmail.com
Saludos gente!!!




[Ojos de Video Tape chords][Ojos de Video Tape cifra]
© LaCuerda.net · aviso legal · privacidad · es · en · pt · contacto