Acordes de Guitarra » C »Charly García » Promesas sobre el bidet (Tab)

Promesas sobre el bidet
Charly García

Letras, Acordes y Tabs para Guitarra, Bajo y Ukulele

  • Intro:[Dm7  Gm7  Am7] x2
    
          Gm7              Am7         Dm7
    Por favor, no hagas promesas sobre el bidet.
          Gm7              Am7        Dm7
    Por favor, no me abras más los sobres.
          Gm7           Am7       Dm7
    Por favor, yo te prometo te esperaré
                Bbmaj7        Csus4
    si es que paro de correr.
    
    Por favor, sigue la sombra de mi bebé,
    por favor, no bebas más, no llores.
    Por favor, yo te prometo, te escribiré
    si es que para de llover.
    
    F                     EbMaj7/F           Dm7
     Porque me tratas tan bien me tratas tan mal.
       Bbmaj7
    ¿Sabés que no aprendí a vivir?
    
  • e |------------------------5---|
    B |-------------------3---5----|
    G |--------------2---3---5-----|
    D |--5-3-2----2h3---5---7------|
    A |--------5-------------------|
    E |----------------------------|
    
    
          Gm7              Am7         Dm7
    Por favor no hagas promesas sobre el bidet
          Gm7              Am7        Dm7
    Por favor no me habras mas los sobres
          Gm7          Am7        Dm7
    Por favor yo te prometo te esperare, 
              Bbmaj7         Csus4
    si es que paro de correr
    
    Por favor sigue la sombra de mi, bebe
    Por favor no bebas mas, no llores
    Por favor yo te prometo te cuidare, 
    
  • Intro
    
    G------------------------------
    D--5--3--2-------3--5--7-------
    A----------5--5----------------
    E------------------------------ X4
    
    
    Versos G-A-D
    
       G               A    D
    G-------5----------------------
    D--5--3---3--5---5-7-----------
    A-----------------------5------
    E------------------------------X3
    
       G         Bb   C
    G-------5----------------------
    D--5--3---3--------------------
    A------------1--1-3-3-3--------
    E------------------------------
    
    
    Repite lo mismo fijate como engancha denuevo con el sol
    
       G               A    D
    G-------5----------------------
    D--5--3---3--5---5-7-----------
    A-----------------------5------
    E------------------------------X3
    
       G         Bb   C
    G-------5----------------------
    D--5--3---3--------------------
    A------------1--1-3-3-3--------
    E------------------------------
    
    
    Estribillo:
    (.. porq me tratas tan..)
       F      Fm     Dm      Bb
    G---------------------------------
    D---------------------------------
    A---------------5--5-5---1--1-1---
    E--1
  • Enorme canción de Charly.
    En este tema el bajo está doblado por un sintetizador (tocado por Fito Páez).
    
    INTRO
              RIFF                           x4
    --------||---------------------------------||
    --5-3-2-||°---------3-5-----7-------5-3-2-°||
    --------||°-5-----5-----------------------°||
    --------||---------------------------------||
    
    ESTROFA A
    
     Gm7     Am7   D            x3
    ------------------------------
    -5-----5-7----------------7---
    ---------------5------5-8---8-
    ------------------------------
    
     Bb              C4
    -------------------------------||
    -------------------------5-3-2-||
    -----------------3-----3-------||
    -6-----6-6---------------------||
    
    
    ESTROFA B
    
     Gm7     Am7   D            x3
    ------------------------------
    -5-----5-7----------------7---
    ---------------5------5-8---8-
    ------------------------------
    
     Bb              C4
    --------------------------------||
    --------------------------------||
    -----------------3-----3-3------||
    -6-----6-6----------------------||
    
    
  •   Intro: A- 6 (5)5(4)  5(6)6 (6)
             B- 6 (5)5(4)  5(5)(6)  6(7)(8) (6)7 8(10)
    
      |6 (6) 7 (6)(6) 5  6  6  5  6  6 (6)
    x2|6 (6) 7 (6)(6) 5  6  6  5 (4)
      |6 (6) 7 (6)(6) 5  6  6  5  6  6 (6)
      |5  5 (4) 4  5  6 (6) 6
    
      |5  5  5  5 (5) 6 (4)(4)(4) 5 (5) 4
      |4 (6)(6)(6)(6)(6) 6 6
    x2|5  5  5  5 (5) 6 (4)(4) 5 (5) 4
      |4 (6)(6)(6)(6)(6) 6
      |7  7 (7)(6) 6 (6) 6  6 (4) 4
      |4  5  6  6  5 (6) 6 (4) 4 (4) 4  4 (4) 4
      (6)(8) 7
    
      (6)(8) 7    (6)(8) 7
  • +
    ¡Colabora con nosotros!
    Envíanos tu versión de esta canción
  • Tutorial
    HD
    Explicado - Como tocar "Promesas sobre el bidet" de Charly Garcia en el bajo tutorial#62
    8:30

Letra de Promesas sobre el bidet
Por favor, no hagas promesas sobre el bidet.
Por favor, no me abras más los sobres.
Por favor, yo te prometo te esperaré
si es que paro de correr.
Por favor, sigue la sombra de mi bebé,
por favor, no bebas más, no llores.
Por favor, yo te prometo, te escribiré
si es que para de llover.
Porque me tratas tan bien me tratas tan mal.
¿Sabés que no aprendí a vivir?
A veces estoy tan bien, estoy tan down,
calambres en el alma.
Cada cual tiene un trip en el bocho,
difícil que lleguemos a
ponernos de acuerdo.
De acuerdo...
Inter: con acordes de la 1ª estrofa.
Porque me tratas tan mal me tratas tan bien....
De acuerdo...
Fin: como Intro.




[Promesas sobre el bidet chords][Promesas sobre el bidet cifra]
© LaCuerda.net · aviso legal · privacidad · es · en · pt · contacto