Acordes de Guitarra » C »Charly García » De mí (Tab)

De mí
Charly García

Letras, Notas, Punteos, Tablaturas y Acordes de Guitarra (Tabs & Chords)

  • Letra y Acordes
    e-------------------------------------------------------
    b--3h5p3-3s12------12------12----1h3p1-1s8-----8-----8-- |
    g-------------0-12----0-12----12-----------0-7---0-7---7 | X 4
    d------------------------------------------------------- |
    a------------------------------------------------------- |
    E-------------------------------------------------------/
    
    D C G
    
    G                             C  G   Riff 1
    Cuando estes mal cuando estes sola
    G                        C   Bb
    cuando ya estes cansada de llorar
    Em                D        F           C          G  Riff 2 D C G
    no te olvides de mi porque se que te puedo estimular
                          C  G  Riff 1 D C G
    cuando me mires a los ojos
                           C    G
    y mi mirada este en otro lugar
    Em                D        F           C          G  Riff 2 y 3
    
  • Tablatura
    e---------7-7-------------3-3-
    b-3h5p3-3--------1h3p1-1------
    G-----------------------------
    D-----------------------------
    A-----------------------------
    E-----------------------------
    
    e---------7-7-------------3-3-------3-
    b-3h5p3-3--------1h3p1-1--------3-1-0-
    G-----------------------------------0-
    D-----------------------------------0-
    A-----------------------------------2-
    E-----------------------------------3-
    
    
    
    G                                C   G   Riff
      Cuando estes mal cuando estes sola
    
    G                                C   Bb
    
  • Piano (Teclados)
    La primer linea es la de los acordes y la segunda
    es de las notas, deberia haberlas diferenciado entre
    cifrado y Do Re Mi, etc pero asi se entiende igual,
    los acordes solo estan para que sepan de donde salen
    las notas y tengan todo junto, pero igual la
    transcripcion ya la hizo Alejandro Mauro
    y esta muy bien, espero que entiendan todo, suerte
         chau!!
    
    
    Intro: (D E D D B B   B C B B G G)  x8  las primeras 4 veces en la octava siguiente
    a la central y las ultimas 4 veces en la central
    
       G                                C-G
    D-C   A  B    A   B     A  B    A   C B-(A-G) arreglo en la octava mas abajo de la central: D-F-G
        cuando estes mal, cuando estes solo
    
    G                         C  - Bb9
       A  B  A    B   A  B A  E   D Bb
     cuando ya estés cansado de llorar
    
             Em       D         F          C          G  D-C/D
     G  A    B A   G  A  E   G  A   E  G   A G    G E G
    no te olvides de mi porque se que te puedo estimular
    
    repite la misma secuencia para 
  • +
    ¡Colabora con nosotros!
    Envíanos tu versión de esta canción
  • Tutorial
    Adaptada para el fogón: "De mí" Charly Garía Tutorial Letra y acordes Cómo tocar con guitarra
    3:20
  • Tutorial
    Como tocar No te alejes tanto de mi (tutorial)
    por Lisandro Flores
    8:27

Letra de De mí
Cuando estes mal cuando estes sola
cuando ya estes cansada de llorar
no te olvides de mi porque se que te puedo estimular
cuando me mires a los ojos
y mi mirada este en otro lugar
no te acerques a mi porque se que te puedo lastimar
no pienses que estoy loco
Riff 4
es solo una manera de actuar
no pienses que estoy solo
estoy comunicado con todo lo demas
por eso!
Cuando estes mal cuando estes sola
cuando ya estes cansada de llorar
no te olvides de mi porque se que te puedo estimular
no te olvides de mi porque se que te puedo estimular
riff 1: riff 2: riff 3: riff 4:
Bueno aca les esta exelente cancion del mas grande
cuidense



© LaCuerda.net · Aviso Legal · Privacidad