Acordes de Guitarra » C »Charly García » Cerca de la Revolución (Tab)

Cerca de la Revolución
Charly García

Letras, Acordes y Tabs para Guitarra, Bajo y Ukulele

  • Introducción:  Em  A
    
    Em           A          Em    A
    Porqué no vienes hasta mí,
    Em                 Am7
    porqué no puedo amarte,
                           C#7   D6
    porqué no vienes hasta mí.
    
    
    Porqué no cambias como el sol,
    porqué eres tan distante,
    porqué no cambias como el sol.
    
    Gm         F            C          Dm7
    Me siento solo y confundido a la vez,
    Gm         F         C          Dm7
    los analistas no podrán entender.
          Gm               F
    No sé muy bien qué decir,
    
  • Intro: (E5 E5 -G5 -A5 A5 -G5 -E5 E5 -G5 -A5 A5 A5 -G5 - E5 E5)
    
    
    
    E5 E5     G5 A5 A5 G5  E5 E5 G5 A5 A5 A5 G5
    Porque no vienes hasta mi.
    Em         G     Am7
    Porque no puedo amarte.
    Am7 (o RIFF)             C#7 D7
    Porque no vienes hasta mi.
    
    
    Porque no cambias como el sol
    Porque eres tan distante,
    Porque no cambias como el sol.-
    
    
    Gm        F5           C5          (C5 D5 Bb5 A5)
    Me siento solo y confundido a la vez
    Gm     F5          C5           (C5 D5 Bb5 A5)
    
  • Em           G      Am7
      porque no puedo amarte.
    RIFF 3
    Porque no vienes hasta mí,
    
    porque cambias como el sol
    porque eres tan distante
    porque no cambias como el sol.
    
    RIFF 4
    Me siento sólo y confundido a la vez
    los analistas no tienen nada que hacer
    ya no se bien que decir
    ya no se más que hacer
    todo el mundo loco en el purvi and jean.
    
    Am7                Bm2   RIFF 5
       Pero si insisto,    seguiré.
    Am7                Bm2                        RIFF 5
       Pero si insisto,   yo se muy bien te con seguiré.
    
  • -|-----|--------|--------|----------|----------||
    -|-----|--------|--------|----------|----------||
    -|-----|----2-2-|--------|----2-2-2-|----------||
    -|-2-2-|----2-2-|----2-2-|----2-2-2-|-----2-2--||
    -|-2-2-|----0-0-|----2-2-|----0-0-0-|-----2-2--||
    -|-0-0-|-3------|-3--0-0-|-3--------|-3---0-0--||
    
    
    RIFF 2
    -||------------------------||
    -||------------------------||
    -||------------------------||
    -||------------------------||
    -||-----------3--3-5-5-----||
    -||-3--3-1--1----------7-7-||
    
    
    Introducción: RIFF 1
    
    RIFF 1
    
  •  Intro: (E5 G5 A5)
    
    e------------------------
    B------------------------
    G------------------------
    D----------2-2-----------
    A---2-2----0-0----2-2-2--
    E---0-0-3b-----3b-0-0-0--                     Am6 (arpegiado)
                                                e-------0----------
    Intro                                       B---------0--------
    Por que no vienes hasta mi                  G-----5-----5------
    Em             G     Am6                    D----5-------------
    Por que no puedo amarte                     A------------------
                           C#7 D#7              E--5---------------
    Porque no vienes hasta mi
    Intro
    Por que no cambias como el sol              Riff 1
     Em              G       Am6                E---------------
    Por que eres tan distaaante                 B---------------
                               C#7 D#7          G---------------
    
  • El tab de Santiago Alujas esta bien, pero le falto una parte. 
    Fijense en la cancion antes del estribillo
    
    Intro
    
    G-----------------------------------------------------
    D-----------------------------------------------------
    A-----------------------------------------------------
    E-0-0--3---5-5-3-0-0--3-5-5-5---3--0-0--3--5-5--3-0---
    
    Puente antes de estribillo (parte que falta en el tab de Santiago Alujas)
    
    G-----------------------------------------------
    D-----------------------------------------------
    A----------------------------------------5-5-5--
    E-0---3---5--5-5-5-5---5--5-5-5-6-7--7-7--------
    
    En el estribillo:
    
    
    G-----------------------------------
    D-----------------------------------
    A-------------3-3-5-5---------------
    E-3-3--1-1------------6-5-3---------
    
    
      
    Pero si insisto...
    
    G------------------------------
    D------------------------------
    A------------------------------
    E---5--5-5-5-5--6--6-6-6-6-----
    
    ...conseguiré
    
    G------------------
  • +
    ¡Colabora con nosotros!
    Envíanos tu versión de esta canción
  • Tutorial
    "Cerca de la revoluciòn" Acordes Letra Charly García Tutorial Cómo tocar con guitarra Cover
    5:02
  • Tutorial
    Como tocar...Cerca de la revolución
    5:36
  • Tutorial
    HD
    Explicado - Como tocar "Cerca de la revolución" de Charly Garcia en el bajo tutorial#288
    12:55

Letra de Cerca de la Revolución
Porqué no vienes hasta mí,
porqué no puedo amarte,
porqué no vienes hasta mí.
Porqué no cambias como el sol,
porqué eres tan distante,
porqué no cambias como el sol.
Me siento solo y confundido a la vez,
los analistas no podrán entender.
No sé muy bien qué decir,
ya no sé más qué hacer.
Todo el mundo loco y yo sin poderte ver.
Pero si insisto, yo sé muy bien, te conseguiré.
Pero si insisto, yo sé muy bien, te conseguiré.
Cerca de la revolución, el pueblo pide sangre.
Cerca de la revolución.
Yo estoy cantando esta canción
que alguna vez fue hambre,
estoy cantando esta canción.
Y si mañana es como ayer otra vez
lo que fue hermoso será horrible después,
no es sólo una cuestión de elecciones,
no elegí este mundo pero aprendí a querer.
Pero si insisto, yo sé muy bien, te conseguiré.
Pero si insisto, yo sé muy bien, te conseguiré.
Si estas palabras te pudieran dar fe,
si esta armonía te ayudara a crecer
yo sería tan feliz, tan feliz en el mundo
que moriría arrodillado a tus pies.
Pero si insisto, yo sé muy bien, te conseguiré.
Pero si insisto, yo sé muy bien, te conseguiré.




[Cerca de la Revolución chords][Cerca de la Revolución cifra]
© LaCuerda.net · aviso legal · privacidad · es · en · pt · contacto