Acordes de Guitarra » C »Charly García » Yendo de la cama al living (Tab)

Yendo de la cama al living
Charly García

Letras, Acordes y Tabs para Guitarra, Bajo y Ukulele

  • Gm7:        353333
    Cm7:        x35343
    Gmmaj7:     354333
    C7sus4:     x35363
    C7:         x35353
    Eb/G        3xx343
    Gm:         355333
    D+:         x3433x
    D:          x57775
    Gm6:        3xx353
    F#/C#:      X4X322
    Dsus4:      x57585
    Bbmaj7[b5]: 6X778X
    Am7#5:      5X556X
    Csus2:      x32033
    Baug7:      x212x3
    Ebmaj7:     x68786
    Dm7:        x57565
    F(add9):    xx3213
    
    
  • Intro: Gm7 - Cm7
    
    Gm*                         Gm7 
    Podés pasear en limousine
    Csus4                       C
    Cortar las flores del jardín
    Gm5 
    Podés cambiar el sol
           Gm**                Dmaj7     D7
    Y esconderte si no quieres verme
           Gm**      Gm5 
    Puedes ver amanecer
    Gmadd6  Csus4          C#sus4
    Con    caviar desde un hotel
         Gm7/D                          Dm/G
    Y no tienes un poquito de amor para dar
    Cm7                      Gm7
         Yendo de la cama al living
    Cm7                      Gm7
         Sientes el encierro
    
  • INTRO: SOLm7 DO7  SOLm7 RE7 SOLm7 DO7 RE4  SOLm7
    
          SOLm7
    Podés pasear en limousine
          DO7
    cortar las flores del jardín
          SOLm7
    podés cambiar el sol y esconderte
                         RE7
    si no quieres verme.
    
               SOLm7
    Podés ver amanecer
              DO7  
    con caviar desde un hotel
                RE4                              SOLm7
    y no tenés ni  un poquito de amor para dar.
    
    DOm7                        SOLm7
      Yendo de la cama al living
    
  • Nota - 11 de junio del 2011:
    Gracias por calificar la tablatura, le hice unos pequeños
    cambios a los solos del Concierto Subacuático (pull-offs y
    uno que otro semitono que anote mal), la parte del tarareo
    (en donde suena más el bajo) y al solo 3 (los intervalos
    estaban más grandes por un semitono).
    
    Creo que es todo, gracias y sigan calificando.
    -----------------------------------------------------------
    
    Como ya estan los acordes del tema, solo pongo la tablatura
    de lo que hace la guitarra, tomando como base el video
    original (http://bit.ly/h4le7R) y la versión del Concierto
    Subacuático.
    
    -----------------------------------------------------------
    
    Guitarra original: Yendo de la cama al living
    
    -----------------------------------------------------------
    
    (...no hay señales de algo que viva en mi)
    
    Solo 1 (con 4 variaciones)
    
    "Negro" López
    E--------------------------------------------------------------/
    B--------------------------------------------------------------/
    G---------
  • Van cuatro tiempos en silencio, y luego la INTRO:
    
    G----------|5535-|----------|-5535----------|
    D-----3355-|-----|-----3355-|---------------|
    A---55-----|-----|---55-----|---------------|
    E-33-------|-----|-33-------|--------0001122|
    
    G----------|5535-|----------|-5535----------|
    D-----3355-|-----|-----3355-|---------------|
    A---55-----|-----|---55-----|---------------|
    E-33-------|-----|-33-------|--------0001122|
    
    G----------|5535-|----------|-5535----------|
    D-----3355-|-----|-----3355-|---------------|
    A---55-----|-----|---55-----|---------------|
    E-33-------|-----|-33-------|---------------|
    
    Podes pasear en limousine...
    G-------------|-------------|-------------|----------------|
    D-------------|-------------|-----------3-|---------3------|
    A-----------1-|-3333-33-3-2-|-------------|-5535--35-53----|
    E-3333-33-3---|-------------|-3333-33-3---|------------654-|
    
    O puedes ser un gran campeón...
    G-------------|-------------|----------------|
    D-------------|-------------|---------3-
  • Bueno esta es la tab para bajo ya que nadie la habia
    presentado.
    
    INTRO:
    G-----------------5-5-3-5------------ escuchen el cd para
    D--------3-3-5-5--------------------- saber la cantidad
    A----5-5----------------------------- de veces que se repite
    E-3-3----------------------0-0-1-2--- repite.
    
    VERSOS:
    G------------------------3-----
    D--------------------3-5---5---
    A------3--3--------5-----------
    E-3--3------3--3--3------------
    
    G------------------------------
    D------------------------------
    A------3--3---5--5-------------
    E-3--3--------------3-3-3------
    
    ESTRIBILLO:
    G------------------------------
    D---------------------3-3-5-5-- (X3)
    A-----3--------5-5-------------
    E-3-3-----3--3-----------------
    
    CORTE:
    G-----------------------------------------
    D-----------------------------------------
    A--------3----------3----6--5---3-3-3-----
    E---6--5-------6--5---------------------3-
    
    REPITE
    EL ESTRIBILLO
    
    bueno esto es todo cualquier duda envien un mail
  • Solo de violín: Yendo de la cama al living
    ----------------------------------------
    
    "...que viva en mí."
    
    D4~~~ Eb4~ D4~
    
    "Erika..."
    
    G4 Bb4 A4 Bb4~ A4 Bb4~
    
    G4 Eb4 D4 C4~  Bb3 / A3 Bb3~ D4 F4 Eb4 D4~
    
    Eb4 G4 Bb4 A4 D5 F5 Eb5 Bb5~
    
    A4 Bb4 A4 Bb4 G4 D4 Bb3~ C4 Bb3~ A3 Bb3 / A3
    
    Bb3 D4 G4 Bb4~ D5~   Bb4 / A4
    
    ----------------------------------------
    
    Ya que puse el solo de violín, también dejo la parte
    del cello de Ulises Di Salvo (pizzicato):
    
    B3 C4 Db4 D4 Bb3 G3 G3 G3 G3 F3 G3 Ab3 A3 C4 F3 Gb3 G3 C3
    
    B3 C4 Db4 D4 Bb3 G3 G3 G3 F4 E3
    
    ----------------------------------------
    
    ~ = Nota larga, ó algo así, una especie de referencia.
    
    / = Slide, ó Glissando
    
    
    SNM
  • Teclados originales: Yendo de la cama al living
    ----------------------------------------------------------
    
    Esta es la primera transcripción de teclado que publico,
    estoy más acostrumbrado a trabajar con partituras, asi que
    puede que esto resulte algo enredado, pero trataré de explicar
    todo.
    
    Ahora, aclaro una cosa: cuando digo 'G3' me refiero a que
    el tono corresponde al tercer 'sol' que se ubica en un piano
    de cola (completo), ya que se puede confundir con el tercer 'sol'
    en un teclado (cuyo tono varía según el tamaño [61, 65, 88])
    
    Segundo: Supongo que usan un teclado común con instrumentos
    GENERAL MIDI, es por eso que anoto el nombre de la 'voz' que
    hace el teclado en base a ese sistema.
    
    Si usan VST ó algún sampler solo es cuestión de buscar algo
    que suene parecido.
    
    ----------------------------------------------------------
    
    Intro
    
    'CyberPad'
    
     |G4~~~~~~~~~~~~~~-------------------------------------------|
     ppp     <      mf
    
    'GrandPiano'
    
     |-----------D5-G5----------
  • +
    ¡Colabora con nosotros!
    Envíanos tu versión de esta canción
  • Tutorial
    HD
    Explicado - Como tocar "Yendo de la cama al living" de Charly Garcia en el bajo tutotial#61
    6:38
  • Tutorial
    Cómo tocar Yendo de la cama al living Charly García Acordes Cover Tutorial
    3:15

Letra de Yendo de la cama al living
Podés pasear en limousine
cortar las flores del jardín
podés cambiar el sol y esconderte
si no quieres verme.
Podés ver amanecer
con caviar desde un hotel
y no tenés ni un poquito de amor para dar.
Yendo de la cama al living
sientes el encierro
Yendo de la cama al living
Podés saltar de un trampolín
batir un record en patín
podés hacer un gol
llevar tu nombre al cielo.
Puedes ser un gran campeón
jugar en la selección
y no tenés ni un poquito de amor para dar.
Yendo de la cama al living
sientes el encierro
Yendo de la cama al living
Oh, no, no, no,
no hay ninguna vibración
aunque vives en un mundo de cine
no hay señales de algo
que vive en mi.
Yendo de la cama al living
sientes el en cierro
Yendo de la cama al living
Y te digo
ROSARIO es de NOB




[Yendo de la cama al living chords][Yendo de la cama al living cifra]
© LaCuerda.net · aviso legal · privacidad · es · en · pt · contacto