Acordes de Guitarra » C »Charly García » Influencia (Tab)

Influencia
Charly García

Letras, Acordes y Tabs para Guitarra, Bajo y Ukulele

  • LAm
    Puedo ver y decir puedo ver y decir Y sentir
              MIm
    algo ha cambiado
    Para mi no es extraño
    LAm
    Yo no voy a correr, Yo no voy a correr
                        MIm 
    Ni a escapar de mi destino, Yo no pienso en peligros
                  DO       SIm            SI  
    Si fue hecho para mi, Yo tengo que saber
    MIm        RE     MIm   FA#m              SI 
    Pero es muy dificil ver, Algo controla mi ser
    
    LAm
    En el fondo de mi,  En el fondo de mi
                         MIm
    Veo temor y veo sospecha, Con mi fascinación nueva
    
    Yo no se bien qué es, Yo no se bien que es vos dirás 
    
  • LAm7/11
    Puedo ver y decir
    Puedo ver y decir y sentir
              MIm
    Algo ha cambiado
                 MIm/DO#
    Para mí no es extraño
    
    LAm7/11
    Yo no voy a correr
    Yo no voy a correr ni a escapar
              MIm
    De mi destino
                 MIm/DO#
    Yo no pienso en peligro
    
    
    
                 DO9
    Si fue hecho para mí
    
  •   Puedo ver...         Algo ha cambiado...
    e|-------|          e|--------------------------|
    B|-0-1-3-| Riff 1   B|-3-1-0----------0---------|
    G|-------|  x 5     G|-------2-0--0-2---2-0-----| Riff 2
    D|-------|          D|----------------------4-2-|
      Si fue hecho para mí....     Pero es muy difícil ver...
    e|---------------------------|--------------------------------|
    B|-----0-3-1-1-------0-------|------------------------------0-|
    G|---0-----------0-2---2-0-2-|---------------0--2-2-2-2-2-2---| Riff 3
    D|-2-------------------------|---2-2-2-2-4-4------------------|
      Puedo ver y decir y sentir mi mente dormir...
    e|-----------------------------------------------------|
    B|-----------------------0-0-----------0---------3-----|
    G|-----0-----0-----0---2-----2-2---0-2---2-0-------2-0-| Riff 4
    D|-2-4---2-4---2-4---------------------------4-2-------|
      Chu chu chu...
    e|-----------------------------------|
    B|-0-1-3---0-1-3-1-0-3-0-3-0---0-0---|
    G|---------------------------0-
  • Intro
    G|------------------------------------------|
    D|------------------------------------------|
    A|-5s7-5s7-5s7-0--0-7-7-0--0----------------|
    E|---------------------------0-3-5-5-5s7-5s7|
    
    Riff1
    G|----------------------------|
    D|----------------------------|
    A|----------------------------|
    E|-5-0-0-3-5--0-0-3-5---------|
    (Al final de la canción arrastra E|-0-5-7-0-5s7-5s7-|)
    Riff2
    G|----------------------------|
    D|----------------------------|
    A|----------------------------|
    E|-7-5-7-5-7-2-2--------------|
    
    Riff3
    G|----------------------------------------------------------|
    D|----------------------------------------------------------|
    A|----------------------------------------------------------|
    E|-7-7-7-7-7-7-7-7-7--5-5-5-5-5-5-5-5-5--3-3-3-3-3-3-3-3----|
    
    Riff4
    G|----------------------------|
    D|----------------------------|
    A|----------------------------|
    E|-7-5-3-2--------------------|
    
    En el solo acompaña con
    G|----------------------------------
  • Charly Garcia
    influencia (2002)
    Si tienen alguna duda sobre el tema escribanme a:
    Marky090585@aol.com
    
    Acordes:
    Lam: [Mi-La-do]
    Mim: [Mi-Sol-Si]
    Do9: [Do-Re-MI-Sol]
    Sim: [Si-Re-Fa#]
    Si: [Si-Re#-Fa#]
    Re/Fa#: [Fa#-Re-Fa#-La]
    Fa#m: [Fa#-Si-Re#]
    Re: [Re-Fa#-La]
    Sol: [Sol-Si-Re]
    Do: [Do-Mi-Sol]
    Fa: [Fa-La-Do]
    Mi: [Mi-Sol#-Si]
    
    Influencia
    
    Lam
    [Si-Do-Re][Si-Do-Re][Si-Do-Re][Si-Do-Re]
     Puedo ver y decir  puedo ver  y decir
                  Mim
    [Si-Do-Re] [Re-Do-Si-La-Sol]
    Y sentir   algo ha cambiado
                    Mim
    [Sol-La-Si-La-Sol-Solb-Mi]
    Para  mi  no  es  extraño
    Lam
    Yo no voy a correr, Yo no voy a correr
                         Mim
    Ni a escapar de mi destino, Yo no pienso en peligros
                  Do9          Sim        Si
    [Sol-Si-Re-Mi-Re-Re]  [La-La-Re-La-Sol-Si-La] 
     Si fue hecho para mi, Yo tengo que saber
    Mim        Re/Fa#   Mim  Fa#m             Si 
    [Mi-Mi-Mi-Mi-Re-Re-Mi]  [La-La-La-La-La-La-Si] 
    Pero es muy dificil ver, Algo controla mi ser
    
  • +
    ¡Colabora con nosotros!
    Envíanos tu versión de esta canción

Letra de Influencia
Puedo ver y decir
Puedo ver y decir y sentir
Algo ha cambiado
Para mí no es extraño
Yo no voy a correr
Yo no voy a correr ni a escapar
De mi destino
Yo no pienso en peligro
Si fue hecho para mí
Lo tengo que saber
Pero es muy difícil ver
Si algo controla mi ser
En el fondo de mí
En el fondo de mí veo temor
Y veo sospechas
Con mi fascinación nueva
Yo no sé bien qué es
Yo no sé bien que es
Vos dirás: son intuiciones
Verdaderas alertas
Debo confiar en mí
Lo tengo que saber
Pero es muy difícil ver
Si algo controla mi ser
Puedo ver, y decir y sentir
Mi mente dormir
Bajo tu influencia
Tu, tu tu …
La ra la la la….
Una parte de mí
Una parte de mí dice: stop!
Fuiste muy lejos
No puedo contenerlo
Trato de resistir
Trato de resistir
Y al final no es un problema
Qué placer esta pena!
Si yo fuera otro ser
No lo podría entender
Pero es tan difícil ver
Si algo controla tu ser
Puedo ver, y sentir, y decir
Mi vida dormir
Será por tu influencia
Puedo ver, y sentir, y decir
Mi vida dormir
Será por tu influencia
Esta extraña influencia!




[Influencia chords][Influencia cifra]
© LaCuerda.net · aviso legal · privacidad · es · en · pt · contacto