Acordes de Guitarra » A »Attaque 77 » Vacaciones Permanentes (Tab)

Vacaciones Permanentes
Attaque 77

Letras, Acordes y Tabs para Guitarra, Bajo y Ukulele

  • intro:SOL-RE-MIm-SIm-RE      x2
    
     SOL          RE         MIm
    Vámonos que diablos hago acá
          SIm                RE
    en el medio de toda esta gente.
     SOL         RE          MIm
    Vámonos que hace alguien como vos
          SIm                RE
    en el medio de toda esa gente.
    DO             RE         MIm             LA
    Tan impersonal viciada de más? Me quiero largar.
    SOL             DO                  RE
    Hoy es viernes, siempre es viernes.
     SOL      RE         MIm
    Vámonos lejos de la ciudad
          SIm                  RE
    a un lugar donde todo es diferente.
     SOL         RE             MIm
    Nuestra piel esta tan suave hoy
    
  •            SOL                       RE                    FA
    E||------------------------|----------------------|---------------|
    B||------------------------|----------------------|---------------|
    G||------------------------|----------------------|---------------|
    D||--5~--------5--7--9--7~-|----4----5----7----5~-|---------------|
    A||---------5--------------|----------------------|-----------5---|
    E||------------------------|----------------------|---------------|
    
                DO              x2 RE
     |--------------------------||----||
     |--------------------------||----||
     |--------------------------||----||
     |--------------------------||----||
     |--7--5--7--5--7--5--7--5--||----||
     |--------------------------||----||
    
       SOL       RE              MIm           SIm      RE
    Vamonos que diablos hago aca, en medio de toda esta gente
       SOL       RE                 MIm                SIm      RE
    Vamonos que hace alguien como vos, en medio de toda esta gente
    
  • INTRO :  (Sobre  G / D / F / C / G - G / D / F / C / D)
    e|-----------------------------------------------|
    B|-----------------------------------------------|
    G|-----------------------------------------------|
    D|-5----5-7-9/7-9---4-5-7-5----------------------|
    A|-----5---------------------5-7-5-7-5-7-5-7-5---|
    E|-----------------------------------------------|
    
    G                     D                            Em                Bm     D 
    Vámonos,  ¿qué diablos hago acá,   en el medio de toda esta gente?
    Vámonos, ¿qué hace alguien como vos, en el medio de toda esta gente
    C                      D                      Em                          A
       Tan impersonal, viciada de más?  Me quiero largar
                     G        C                      D      C
       Hoy es viernes,   siempre es viernes 
    
    
    Vámonos lejos de la ciudad a un lugar donde todo es diferente
    Nuestra piel esta tan suave hoy como para sentirnos mutuamente 
    Desnudos frente al mar dan ganas de hablar promesas de más: 
    
  • solo:
    
    e|-----------------------------------------------------
    B|-----------------------------------------------------
    G|--------------------------------------7-9h7----------
    D|------------------5-5---5---5h7-5-7s9-------9-7------
    A|-------5----5---7-----7--------------------------7s9-
    E|-3-5s7---7-------------------------------------------
    
    -10beb---10-----------------------------------------------
    -------8----10be-10v------8-10--10be-8----------------8---
    ----------------------7-9--------------9v--7-7h9-7--9---7-
    ----------------------------------------------------------
    ----------------------------------------------------------
    ----------------------------------------------------------
    
    ----------------|
    -8-8-8-8--7--7s-|
    -7-7-7-7--7--7s-|
    ----------------|
    ----------------|
    ----------------|
    
    punteo del final
    
    e|-------------------------------------------------------------
    B|-------------------------------------------------------------
    G|--------------------------------------------
  • Intro
    
    G||--------------------------------------||
    D||--------------------------------------||   X2
    A||5-5---5-7-9-5-4-5-7-5~----------------||
    E||----5------------------5H7-5H7-5H7-5H7||
    
    G||----------------||
    D||----------------||  Esto va antes de q empieze a cantar
    A||22--3-3--22--3-3||  con el ritmO del bombo
    E||----------------||
    
    Vamonos q diablos hago aca....
    
    G||----------------------------------------------------------||
    D||----------------------------------------------------------|| X2
    A||----------33--3-3----------------00--0-0--33--3-3--2-2-2-2||
    E||33--3-3------------1010--10-10----------------------------||
    
    Tan impersonal .....
    
    G||--------------------------------||
    D||--------------------------------||
    A||33--3-3-------------------------||
    E||---------1010--10-10---33--3-3-1||
    
    Hoy es viernes....
    
    G||--------------------------------------------||
    D||--------------------------------------------||
    A||----------22--2-2--33--3-3--22--2-2--33--3-3||
    E||33--3-3--------------
  • C  = crash
    Sp = splash
    RI = ride
    HH = hi hat   x-cerrado   X-abierto
    T1 = toms chico
    T2 = toms grande
    G  = Goliat
    R  = redoblante
    B  = bombo
    
    INTRO
    C  |x---------------|----------------|----------------|----------------|
    HH |----X---X---X---|X---X---X---X---|----------------|----------------|
    R  |----o-------o---|----o-------o---|o---o---o---o---|o---o---o---o-oo|
    B  |o-------o-o---o-|o-------o-o---o-|o-o-o-o-o-o-o-o-|o-o-o-o-o-o-o-o-|
    
    C  |x---------------|----------------|----------------|----------------|
    HH |----X---X---X---|X---X---X---X---|----------------|----------------|
    R  |----o-------o---|----o-------o---|o---o---o---o---|o---o---o---o-oo|
    B  |o-------o-o---o-|o-------o-o---o-|o-o-o-o-o-o-o-o-|o-o-o-o-o-o-o-o-|
    
    C  |x---------------|----------------|
    HH |----X---X---X---|X---X---X-------|
    T1 |----------------|------------o---|
    T2 |----------------|-------------o--|
    G  |----------------|--------------oo|
    R  |----o-------o---|----o-----------|
    B  |o-------o-o---o-|o-------o-o
  • +
    ¡Colabora con nosotros!
    Envíanos tu versión de esta canción

Letra de Vacaciones Permanentes
Vámonos que diablos hago acá
en el medio de toda esta gente.
Vámonos que hace alguien como vos
en el medio de toda esa gente.
Tan impersonal viciada de más? Me quiero largar.
Hoy es viernes, siempre es viernes.
Vámonos lejos de la ciudad
a un lugar donde todo es diferente.
Nuestra piel esta tan suave hoy
como para sentirnos mutuamente.
Desnudos frente al mar, dan ganas de hablar promesas de más:
"Voy a amarte, para siempre"
Estoy cansado ya, igual no puedo parar.
Tu cola está tan bien que dan ganas de mordértela.
Me sale pensar que el tiempo quizás se detenga ya
Vacaciones permanentes
bueno aca esta mi primer acorde y espero q les guste desde ya
le mando saludos al kincho,palta,cojerman,faysu,culan,joselo,
pauly,belen,betania,a los vagos de la escuela y un saludo
especial para "LEOCLIDES"...ha tambien para nico y colincho
cualquier duda me pueden escribir a fabysk8_4@hotmail.com




[Vacaciones Permanentes chords][Vacaciones Permanentes cifra]
© LaCuerda.net · aviso legal · privacidad · es · en · pt · contacto