Acordes de Guitarra » A »Attaque 77 » Echo fuego (Tab)

Echo fuego
Attaque 77

Letras, Notas, Punteos, Tablaturas y Acordes de Guitarra (Tabs & Chords)

  • Letra y Acordes
    Intro: (A F#m D E) x 2
    
    A         E  (E-G-E-G)*       A          E
    Viernes!!!...ahora siempre es Viernes, sí…
    Sol!!!es preferible el sol sin dudas…
    A     **          E               A         **          E
    Tiempo me sobra, aún estoy nuevo, aún tengo tiempo de más.
    Probé la vida y quiero más,
    Tengo stamina de más y bonus para gastar…
    D           E              D                E
    Los días nublados de ayer hoy pasaron y no quiero saber
          D         D/G#       D        A
    de andar con mochilas de amargos recuerdos,
     D         D/G#          D       A     E
    Con el cartel que dice: “Pegue que no duele”
                       A A/G# F#m F#/B D E
    …por que hoy echo fuego…
    A A/G# F#m F#/B   D               E
    Fuego!!!      Cuidado te puedo quemar….
    
    
  • Letra y Acordes
    A5         E5              A5                     E5
    viernes, ahora es siempre viernes, si!
    A5  E5            A5                  E5
    sol, es preferible sol sin duda
    A5                    E5                      A5                    E5
    tiempo me sobra, aun no estoy muerto, aun tengo tiempo de mas
    A5                                 E5                       A5                E5  
    probé la vida y quiero mas, tengo stamina de mas y bonus para gastar!
    D5          E5               D5           E5
    los días nublados de ayer, hoy pasaron y no quiero saber 
    D5
    de andar con mochilas de amargos recuerdos
                                      E5
    con el cartel que dice “pegue que no duele”
                    A5    D5 E5      A5          D5                   E5
    porque hoy echo fuego ................ Fuego ... Cuidado te puedo quemar!
    
    solo, mas bien acompañado por nadie
    fuera de control, mas despistado que el avión de lapa estoy
    me viene bien cualquier tren siempre 
    
  • Tablatura
      Hola hermanos a77aquistas, acá les dejo los punteos 
    del tema “Echo Fuego” que esta muy bueno y es muy 
    “PUM PARA ARRIBA” a full... Que lo disfruten... 
    aguante ¡~AutoestimA~! punk rock!(pichones de a77aque!)
              
    	Después les acerco los acordes...
    
    /= Slide
    
    
    E |-9-7-5-7-9---------------------5-/5-/5--- /9-/9-/9--10-9—---10-9----|
    B |-----------7---7-5---7-5-------------------------------10------10-12|
    G |------------------6------6-4----------------------------------------|
    D |--------------------------------------------------------------------|
    A |--------------------------------------------------------------------|
    E |--------------------------------------------------------------------|
      Solo
         
    E |---0-/2-/2--2-5-9-12-9-7---/5-4-2-0-2-4-9-----5-0-------------------|
    B |--2----------------------------------------/2----2-0—0--------------|
    G |-2--------------------------------------------------2---------------|
    D |----------------------------
  • Tab p/Bajo
    *:tocar varias veces
    H: Hammer
    x: veces que se toca el verso
    
    Intro
    
    G/------------------------------------------------|
    D/------------------------------------------------|
    A/-----------4-4-7-7-9-9-9—9-9-9-9-7-7-5***-7***--|
    E/-5-5-5-5-5--------------------------------------|
    
    
    G/----------------------------------------|
    D/---7-------6-------4-------2------------|
    A/------------------------------5***—7***-|
    E/-5---5---4---4---2---2---0--------------|
    
    
    Verso
    
    G/--------------------------------------------------------|
    D/--------------------------------------------------------|
    A/-------------------------------5H7-7-7-7-7-5H7-7-7-7-7--|   2x
    E/-5***-0***--2-0-2-0--5***-0***--------------------------|
    
    
    G/------------------------------------|
    D/------------------------------------|
    A/------4-4-5-5--7***--9-7------------|   2x
    E/-5***---------------------5***--0***|
    
    
    Pre-Coro
    
    G/-----------------------------------------------------------------
    D/-----
  • +
    ¡Colabora con nosotros!
    Envíanos tu versión de esta canción

Letra de Echo fuego
viernes, ahora es siempre viernes, si!
sol, es preferible sol sin duda
tiempo me sobra, aun no estoy muerto, aun tengo tiempo de mas
probé la vida y quiero mas, tengo stamina de mas y bonus para gastar!
los días nublados de ayer, hoy pasaron y no quiero saber
de andar con mochilas de amargos recuerdos
con el cartel que dice “pegue que no duele”
porque hoy echo fuego ................ Fuego ... Cuidado te puedo quemar!
fuera de control, mas despistado que el avión de lapa estoy
me viene bien cualquier tren siempre
y cuando tenga deseos de viajar en tren
y mientras tanto voy al estilo Nicky Lauda, como Juana de Arco en llamas, en llamas!
no tengo nada que perder, soy el Diego del 86,
juego y convierto eludiéndome a cuatro, con el mismo pie izquierdo con el que me levanto
echo fuego ... Si, si fuego ... Como el auto de batman nomás!
supercell de optimismo, twister de emoción, fenómeno tsunami,
rock and roll del amor, enamorarse nada mas que del amor en si,
del amor en mi
los días nublados de ayer, hoy pasaron y no quiero saber
de andar con mochilas de amargos recuerdos
con el cartel que dice “pegue que no duele”
echo fuego, como Hauseman en el 73,
fuego, como Robert De Niro en cabo de miedo,
como racing campeón después de 30 años
cantando con la voz de mostaza Merlo,
soy jinete sin cabeza y sin montura
y Serena Williams es mi caballo negro.
Love is in the air!
AGUANTE EL ROJO!!!
Y gracias oreja por pasarme la letra por telefono!!!

Videos de Echo fuego
[ver más videos]

[ver todas las canciones]


© LaCuerda.net · Aviso Legal · Privacidad