Tablatura para Bajo de Attaque 77: Echo fuego
Conexión · Inscripción
Letras y Acordes
Pantalla Completa
Imprimir
Versión Texto
Añadir Favorito
Otras Versiones

Mostrar Diagramas
Desfile Automático
Formato del Texto


Echo fuego(BAJ)

Attaque 77

calidad:
at771474
AUTOR: Ciro pertusi
ALBUM: Antihumano (2003)
Enviado por Rodrigo
*:tocar varias veces
H: Hammer
x: veces que se toca el verso

Intro

G/------------------------------------------------|
D/------------------------------------------------|
A/-----------4-4-7-7-9-9-9—9-9-9-9-7-7-5***-7***--|
E/-5-5-5-5-5--------------------------------------|


G/----------------------------------------|
D/---7-------6-------4-------2------------|
A/------------------------------5***—7***-|
E/-5---5---4---4---2---2---0--------------|


Verso

G/--------------------------------------------------------|
D/--------------------------------------------------------|
A/-------------------------------5H7-7-7-7-7-5H7-7-7-7-7--|   2x
E/-5***-0***--2-0-2-0--5***-0***--------------------------|


G/------------------------------------|
D/------------------------------------|
A/------4-4-5-5--7***--9-7------------|   2x
E/-5***---------------------5***--0***|


Pre-Coro

G/-----------------------------------------------------------------
D/-----------------------------------------------------------------
A/-5***--7***--5***--7***--5-5-5-5-5-4-4-4-4-4-5-5-5-5-5-----------
E/-------------------------------------------------------5-5-5-5-5-


G/----------------------------------------------------------------|
D/----------------------------------------------------------------|
A/-5-5-5-5-5-4-4-4-4-4-5-5-5-5-5-----------7***-5h7-7***-5h7-7***-|
E/-------------------------------5-5-5-5-5------------------------|


Coro


G/------------------------------------------------|
D/------------------------------------------------|
A/-----------4-4-7-7-9-9-9—9-9-9-9-7-7-5***-7***--|
E/-5-5-5-5-5--------------------------------------|


G/----------------------------------------|
D/---7-------6-------4-------2------------|
A/------------------------------5***—7***-|
E/-5---5---4---4---2---2---0--------------|


Puente


G/--------------------------------1-4-9-|
D/------------------------------2-------|
A/-2***----------------2***-------------|
E/------2***-5***-0***-----2***---------|


Outro


G/--------------------------------------------------------|
D/--------------------------------------------------------|
A/------9-7---7-9---------9-7-----7-9---------------------|
E/-5***-----9-----9--5***-----9-------5-5-4—5-5-4-5-5-4-5-|


ORDEN DE LA CANCIÓN:

Intro
Verso (00:14)
Pre-Coro (00:40)
Coro (00:56)
Verso (01:10)
Pre-Coro (01:36)
Coro (01:52)
Puente (02:06)
Intro (02:19)
Pre-Coro (02:32)
Coro (02:48)  x2
Outro (03:15)
Este fichero es trabajo propio de su transcriptor y representa su interpretación personal de la canción. El material contenido en esta página es
para exclusivo uso privado, por lo que se prohibe su reproducción o retransmisión, así como su uso para fines comerciales.

© LaCuerda.net · Aviso Legal · Privacidad