Tablatura para Guitarra de Attaque 77: Echo fuego
Conexión · Inscripción
Letras y Acordes
Pantalla Completa
Imprimir
Versión Texto
Añadir Favorito
Otras Versiones

Mostrar Diagramas
Desfile Automático
Manipular Acordes
Formato del Texto


Echo fuego(TAB)

Attaque 77

calidad:
at771471
AUTOR: Ciro pertusi
ALBUM: Antihumano (2003)
Enviado por Lucio
  Hola hermanos a77aquistas, acá les dejo los punteos 
del tema “Echo Fuego” que esta muy bueno y es muy 
“PUM PARA ARRIBA” a full... Que lo disfruten... 
aguante ¡~AutoestimA~! punk rock!(pichones de a77aque!)
          
	Después les acerco los acordes...

/= Slide


E |-9-7-5-7-9---------------------5-/5-/5--- /9-/9-/9--10-9—---10-9----|
B |-----------7---7-5---7-5-------------------------------10------10-12|
G |------------------6------6-4----------------------------------------|
D |--------------------------------------------------------------------|
A |--------------------------------------------------------------------|
E |--------------------------------------------------------------------|
  Solo
     
E |---0-/2-/2--2-5-9-12-9-7---/5-4-2-0-2-4-9-----5-0-------------------|
B |--2----------------------------------------/2----2-0—0--------------|
G |-2--------------------------------------------------2---------------|
D |--------------------------------------------------------------------|
A |--------------------------------------------------------------------|
E |--------------------------------------------------------------------|
  
     
                    
	Viernes!!!...ahora siempre es Viernes, sí…Sol!!!es preferible el sol sin dudas… 
Tiempo me sobra, aún estoy nuevo, aún tengo tiempo de más. Probé la vida y quiero más, 
Tengo stamina de más y bonus para gastar…
Los días nublados de ayer hoy pasaron y no quiero saber de andar con mochilas de amargos recuerdos, 
Con el cartel que dice: “Pegue que no duele” 
…por que hoy echo fuego…Fuego!!! Cuidado te puedo quemar…. 
  
Solo!!!...mas bien acompañado por nadie… 
Fuera de control!!!...mas despistado que el avión de Lapa estoy… 
Me viene bien cualquier tren, 
Siempre y cuando tenga deseos de viajar en tren… 
Y mientras tanto voy al estilo Nicky Lauda 
Como Juana de Arco, en llamas, en llamas!!! 
  
No tengo nada que perder…soy el Diego en el ’86, juego y convierto eludiéndome a cuatro, 
Con el mismo pie izquierdo con el que me levanto…echo fuego!!!...Sí, sí fuego!!!! 
Como el auto de Batman nomás…Supercell de optimismo, Twister de emoción, 
Fenómeno Tsunami, rocanrol del amor… 
De enamorarse nada mas que del amor en sí, del amor en mí!!! 

Los días nublados de ayer, hoy pasaron 
Y no quiero saber de andar con mochilas de amargos recuerdos, 
Con el cartel que dice: “Pegue que no duele” 
Por que hoy echo fuego!!!Como Houseman, en el ’73. Fuego!!! 
…como Robert de Niro en “Cabo de miedo”, como Racing campeón después de 30 años, 
cantando con la voz de Mostaza Merlo, 
soy jinete sin cabeza y sin montura y Serena Williams es mi caballo negro… 
Love is in the air!!!...Love is in the air!!!.
Este fichero es trabajo propio de su transcriptor y representa su interpretación personal de la canción. El material contenido en esta página es
para exclusivo uso privado, por lo que se prohibe su reproducción o retransmisión, así como su uso para fines comerciales.

© LaCuerda.net · Aviso Legal · Privacidad