Acordes de Guitarra » T »los Tres » Traje desastre (Tab)

Traje desastre
los Tres

Letras, Acordes y Tabs para Guitarra, Bajo y Ukulele

  • REm
    Bajé la tierra
    SOLm
    me decidí
    FA                 LA#
    vestido con ropas
        LA
    que yo elegí.
    
    
    Vine a llenar
    LA eterna promesa.
    Me comí el agua
    y el vino en la mesa.
    
    
    LA#7
    Traje desastre
    DO7
    traje alegría
    
  •       A   F    Dm
    e|------------------5/6-5-3-------|          |--0--0--1--1--1--5/6-5-3-------|
    B|------5---*5/6------------6-5-3~|          |--2-----1-----3----------6-5-3-|
    G|----6---------7-----------------|    X 2   |--2-----2-----2----------------|    X 2
    D|--------7-----------------------|          |--2-----3-----0----------------|
    A|--------------------------------|          |--0-----3-----0----------------|
    E|--------------------------------|          |-------------------------------|
    
    * = hacelo ultra rapido y suena bien o si no, solo marca el 6
    
    
    
    
    Dm
    Baje a la tierra
    Gm
    me decidí
    F        A#
    vestido con ropas                                                      *A
        *A-----------------------------------> suena mejor con esta nota e|-1-|
    
  • Esta es mi primera tab que subo y que mejor que fuera de una de las mejores
    canciones de uno de los mejores grupos de chile.
    La transcripción está hecha para bajo y es
    la versión unplugged.
    
    Los tres- traje desastre
    
    Intro
    
    G|-------------------------|
    D|-------------------------|
    A|---------------5---------|
    E|--5-----1----------------|  x2
    
    Verso x2
    
    G|--------------------------------------------------------------------------|
    D|--------------------------------------------------------------------------|
    A|---5--5--0-5---875-------------------------1---1H3--1---------------------|
    E|--------------------3---3--03--5-3-1--1--1-------------3-5---5-5--05-578--|
    
    Coro x2
    
    G|-------------------------------------------|
    D|-------------------------------------------|
    A|1-1-1-1-1-3-3-3-3-3-5-5-5-5-5--------------|
    E|---------------------------------3-3-3-3-3-|
    
    Intermedio (es breve pero se hace después del coro)
    
    G|-------------------------------------------|
    D|----------------------------
  • +
    ¡Colabora con nosotros!
    Envíanos tu versión de esta canción

Letra de Traje desastre
Bajé la tierra
me decidí
vestido con ropas
que yo elegí.
Vine a llenar
Me comí el agua
y el vino en la mesa.
Traje desastre
traje alegría
traje alambres
bajé en subida.
Voy a esconderme
en las malezas
y robare el sol
cuando amanezca
Lo que es real
yo sé son los huesos
y todo el resto
es solo relleno.
Traje desastre
traje alegría
traje alambre
baje en subida
Traje recuerdos
para olvidar
traje una cuerda
para colgar.
Subo de nuevo
dejo la tierra
un remordimiento
inflama las venas.
Y aunque me lleve el tiempo
no tengo edad.( 2 veces )
no tengo edad.




[Traje desastre chords][Traje desastre cifra]
© LaCuerda.net · aviso legal · privacidad · es · en · pt · contacto
DINAMICO