Acordes de Guitarra » T »los Tres » Torre de babel (Tab)

Torre de babel
los Tres

  • Tablatura
    e-----------9-7---|----------9-7--|---------10^9-10^9-10^9-10^9--7-9-----|
    b-------(8)-------|-------(8)-----|-------x------------------------------|
    g---4/9-----------|---4/9---------|---4/9--------------------------------|
    d-----------------|---------------|--------------------------------------|
    a-----------------|---------------|--------------------------------------|
    E-----------------|---------------|--------------------------------------|
    (4 veces)
    
    "Quiebre"
    e----------------------------------------|------------------------------------|
    b----------------------------------------|------------------------------------|
    g----------------------------------------|------------------------------------|
    d-------15-15--------15-15--------15-15--|-13--13--13-13-13---15-15-15-15-15--|
    a--7/16-16-16--10/16-16-16--10/16-16-16--|-14--14--14-14-14---16-16-16-16-16--|
    E----------------------------------------|------------------------------------|
    
    e-------------------------------------------|-
    b-------------------------------------------|-
    g------(14)(14)------(14)(14)------(14)(14)-|-
    d-------15--15--------15--15--------15--15--|-
    
  • Tablatura
         A7                            G7
    e|--------9-7---|----------9-7--|-------10^9-10^9-10^9-10^9--7-9-----|
    B|--------------|---------------|------------------------------------|
    G|---4/9--------|---4/9---------|---4/9------------------------------|
    D|--------------|---------------|------------------------------------|
    A|--------------|---------------|------------------------------------|
    E|--------------|---------------|------------------------------------|
    
    A7   G7
    
    A7
    En la Torre de Babel
    G7                    A7
    vivían cincuenta cigarros
    vivían amontonados
    G7                 A7
    hechos todos de papel
    Uno a uno alineados
    G7                A7
    todos muy bien formados
    
  • Tablatura
    LA7-SOL7-LA7-SOL7-LA7
    
    
     LA                    SOL       LA
    EN LA TORRE DE BABEL VIVIAN 50 CIGARROS
                       SOL               LA
    VIVIAN AMONTONADOS HECHOS TODOS DE PAPEL
     RIFF1
    UNO A UNO ALINEADOS TODOS MUY BIEN FORMADOS
     RIFF1
    EL MAS PEQUEÑO ERA AQUEL Y SE LLAMABA GABRIEL
    
     LA                    SOL          LA
    TABACO FINO ALGODONES IBAN A VER AL RIO
    IBAN CANTANDO CANCIONES MUERTOS DE FRIO
    LA PASION DE GABRIEL ERA NADAR EN EL RIO
    LE CONTO DE ESTO A SU TIO QUE ERA UN CIGARRO DE MIEL.
    
    RIFF2-INTRO
    
    
  • Tablatura
           Cuerdas    | E | A | D | G | B | E |
    
                A7    ( 5 | 7 | 5 | 6 | 5 | 5 )
                      ( 5 | X | 5 | 6 | X | X )
                      ( X | 12| 11| 12| 10| X )
                      ( X | 0 | 2 | 0 | 2 | X )
                      ( X | 12| 14| 12| 14| X )
    
                G7    ( 3 | 5 | 3 | 4 | 3 | 3 )
                      ( 3 | X | 3 | 4 | X | X )
                      ( X | 10| 9 | 10| 8 | X )
                      ( 3 | 5 | 3 | 0 | X | X )
                      ( X | 10| 12| 10| 12| X )
    
    
    
    (Nota: la notacion La y Sol Fue cambiada por A7  y G7)
    aun faltan correcciones en los riffs y unos acordes mas k lleva
    la cancion posteriormente seran agregados)
    
    
  • Tab p/Bajo
    estrofa:
    G|--------------------
    D|--7---7---5-5-6-7---
    A|----7---7---------7-
    E|--------------------
    Esto se repite hasta el puente
    
    puente:
    G|-----------------------------
    D|----------------1-2-1--------      x2
    A|--22-33-55-33-1-------2-1-0--
    E|-----------------------------
    
    G|---------------------------------
    D|--4-4-4-3-3-3-2-2-2-1------------
    A|-----------------------3-5-3-5-7-
    E|---------------------------------
    
    y después de esto se vuelve a la figura de la estrofa y en el solo se hace
    la primera figura.
  • +
    ¡Colabora con nosotros!
    Envíanos tu versión de esta canción

Letra de Torre de babel
EN LA TORRE DE BABEL VIVIAN 50 CIGARROS
VIVIAN AMONTONADOS HECHOS TODOS DE PAPEL
RIFF1
UNO A UNO ALINEADOS TODOS MUY BIEN FORMADOS
RIFF1
EL MAS PEQUEÑO ERA AQUEL Y SE LLAMABA GABRIEL
TABACO FINO ALGODONES IBAN A VER AL RIO
IBAN CANTANDO CANCIONES MUERTOS DE FRIO
LA PASION DE GABRIEL ERA NADAR EN EL RIO
LE CONTO DE ESTO A SU TIO QUE ERA UN CIGARRO DE MIEL.
RIFF2-INTRO
SU TIO QUE ERA MUY VIEJO NO LE PUSO REPAROS
Y CUANDO LLEGO EL HABANO FORRADO ENTERO DE CAFE
DONDE SE METIO GABRIEL PREGUNTO INQUIETO EL HABANO
SE FUE CON OTROS CIGARROS A VER EL RIO CORRER
NO LO PUEDO CEER ERES MUY MAL CIUDADANO
PUES TU SOBRINO Y HERMANO TAL VEZ NUNCA PUEDA VOLVER.
RIFF2-INTRO
CUANDO LLEGO EL HABANO A LA ORILLA DEL RIO
VIO UN PEQUEÑO CIGARRO MUERTO ABIERTO Y TENDIDO
ESTABA TODO MOJADO SIN SEÑALES DE VIDA
EL TABACO SE DESPRENDIA QUEDABA DESPARRAMADO
TRISTEZA LLANTO Y LAMENTO REINARAN DESDE HOY EN BABEL
SE NO HA MUERTO GABRIEL TODO HA QUEDADO EN SILENCIO.
RIFF2
Y SOLAMENTE UN BUEN FUEGO PUEDE DAR MUERTE A UN CIGARRO
PERO SI MUERE MOJADO ES IGUAL QUE SI A UN HOMBRE
LO MATARAN COLGADO.............COLGADO.
RIFF1
RIFF2
LA CANCION ES MUY FACIL, EN CUANTO A LOS ACORDES DE LAS ESTROFAS
LOS ACORDES QUE VAN EN LA PRIMERA ESTROFA SE REPITEN PARA
LAS OTRAS TRES SIGUIENTES.



© LaCuerda.net · aviso legal · privacidad · contacto