Acordes de Guitarra » T »los Tres » Déjate Caer (Tab)

Déjate Caer
los Tres

Letras, Acordes y Tabs para Guitarra, Bajo y Ukulele

  • Bm
    Dejate caer
             A
    Dejate caer
         Em            F#
    La tierra es al reves
        Em           C
    La sangre es amarilla
         Bm
    Dejate caer
    
         F#          Em
    El viento ya no sopla
        F#           Em
    La boca bien cerrada
      F#           Em
    Amarrate los pies
      Dm    
    Piensa en tu madre
       C       Bm
    
  • los tres(unplugged):dejate caer
    transcription: Boris Chilan corregido por gozub
    Solo:
    e:-10-10-10-10-10-10-9--10-12-12-12-12
    B:-12-12-12-12-12-12-11-12-14---------
    G:------------------------------------
    
    
    e:-10-10-10-10-10-10-12-7/9-9--9--9--10
    B:-12-12-12-12-12-12-14-----10-10-10-12
    G:-------------------------------------
    
    e:-7-7-7-7-7-7-6-7/9--9---6-7-9--10-9--7
    B:-8-8-8-8-8-8-7-8-11-11--7-8-10-12-10-8
    G:--------------------------------------
    
    e:-12-12-14-15-14-12--10-10-9--9--7-7-5-5
    B:-13-13-13-13-13-13--12-12-10-10-9-9-7-7
    G:---------------------------------------
    
    e:-3-3-2-2-0-0-0
    B:-5-5-3-3-2-2-0-
    G:----------------
  •     Bm            Bm                               A            Em
     |--------2-------------2-0-------------2----------0---0---0--------0-------
     |------3-3-3---3-----3-----3-2-0-----3-3-3---3--0-0-3-2-0-0----0---0-------
     |--4-4-4-4-4-4-4-4-4-------------4-4-4-4-4-4-4--2-2-2-2-2-2--0-0---0---0---  
     |--4-4-4-4-4-4-4-4---------------4-4-4-4-4-4-4--2-2-2-2-2-2--2-2-2-2-2-2-2-
     |--2-------------2---------------2--------------0------------2-2-2-2-2-2-2-
     |------------------------------------------------------------0-------------
    
     1.-Déjate caer____               Déjate caer____          La Tierra es al rem
     2.-Mira al cielo ceder___    y a la tierra después___        Vuelve a cre__
     3.-Consuélame otra vez___ porque no pienso volver___      el suelo tiene  
    
      C#m7b5       Em           C            Bm              Bm
     -----0---0-0----------0----0---0---0-0--------2-0-------------2-0--------
     -------5---5------0-----0--1-----1---1------3-----3-2-0-----3-----3-2-0--
     ---4---4-4-4----0-0---0-0--0-0-0-0-0-0--4-4-------------4-4--------------
     -5-5-5-5-5-5--2-2-2-2-2-2--2-2-2-2-2-2--4---------------4----------------
     -4-4-4-4-4-4--2-2-2-2-2-2--3------------2---------------2----------------
     -2------------0----------------------------------------------------------
    
    
  • Espero les guste este bajeo. Esta muy sencillo.
    
    
    Déjate caer.........
    E-------------------2--5-55-----------------------------------------
    A-2-22--2-22--2-22-----------------4--------------------3-33-1-2-22-
    D---------------------------0-2-22----4--44--2--2-22-0--------------
    G-------------------------------------------------------------------
    
    
    El viento ya no sopla........(Esta parte se repite en los versos)
    E---------------------------------------------------------------
    A------------2-4-----------------2-4--------------------5-55—5—-
    D-4-44--4--2-----2-4-5--4-44--2------2-4-5--4-44--2-22-1--------
    G---------------------------------------------------------------
    
    
    E---------------------
    A—3-33—1- 2-22-2-22---
    D---------------------
    G---------------------
    
    
    Puente
    E-----------------------------
    A---3-6-5-6--------5----------
    D------------3-3-3---5-6-5-3--	 X 3
    G-----------------------------
    
    
    Para cerrar el puente  
    E------------------------------
  • Esta es una de las mejores rolas que he oido. 
    Espero les guste esta traduccion.
    
    
    Sim
    Déjate    caer 	
    Re re re  do# do#
    
            La
    dejate   caer
    re re re mi do# do#
    
    Mim        Fa#
    La tierra  es  al   revez            
    Si si si   sib  do# do#
    
    Mim          Do
    la sangre es  amarilla
    si si si  si  si si do do
    
          Sim
    Dejate    caer 
    Do do do  si si
    
    Fa#                Mim
    El viento ya no sopla
    Re re re   re do# do# re
    
    
    Fa#             Mim
    La boca  bien  cerrada
    Re re re re do# do# re
    
    Fa#	Sim
    Amárrate los pies
    Do# do# do# fa# si si
    
    Do	                Sim
    Piensa  en tu madre  y dejate caer
    Do do do do do do do do do si si
    
    Sim
    Mira al cielo ceder
    Re re re re re do# mi 
    
    	La
    Y  a la tierra  después
    Re re re re re  mi do# do#
    
    
    Mim        Fa#
    Vuelve a creer
    Si si si sib do#
    
    
    Do	        Sim
    La sangre es amarilla  déjate caer
    si si si  si si si do do do do do si si
    
    
    Fa#           Mim
    Las olas ya no mojan
    Re re re re d
  • +
    ¡Colabora con nosotros!
    Envíanos tu versión de esta canción

Letra de Déjate Caer
Dejate caer
Dejate caer
La tierra es al reves
La sangre es amarilla
Dejate caer
El viento ya no sopla
La boca bien cerrada
Amarrate los pies
Piensa en tu madre
Y dejate caer
Mira al cielo ceder
Y a la tierra despues
Vuelve a creer
La sangre es amarilla
Dejate caer
Las olas ya no mojan
La ira de las rocas
Amarrame otra vez
Un beso a mi madre
Y dejame caer
Consuelame otra vez
Porque no pienso volver
El suelo tiene sed
La vida es imprecisa
Dejate caer
Las olas no demoran
A mi alma desertora
Explicalo muy bien
Se abre la tierra
El suelo esta a mis pies.




[Déjate Caer chords][Déjate Caer cifra]
© LaCuerda.net · aviso legal · privacidad · es · en · pt · contacto
DINAMICO