Tablatura para Bajo de los Tres: Traje desastre
Conexión · Inscripción
Letras y Acordes
Pantalla Completa
Imprimir
Versión Texto
Añadir Favorito
Otras Versiones

Mostrar Diagramas
Desfile Automático
Formato del Texto


Traje desastre(BAJ)

los Tres

calidad:
tres0273
AUTOR: Alvaro Henriquez, Roberto Lindl, Angel Parra
ALBUM: Unplugged (1985)
Enviado por Alvaro
Esta es mi primera tab que subo y que mejor que fuera de una de las mejores
canciones de uno de los mejores grupos de chile.
La transcripción está hecha para bajo y es
la versión unplugged.

Los tres- traje desastre

Intro

G|-------------------------|
D|-------------------------|
A|---------------5---------|
E|--5-----1----------------|  x2

Verso x2

G|--------------------------------------------------------------------------|
D|--------------------------------------------------------------------------|
A|---5--5--0-5---875-------------------------1---1H3--1---------------------|
E|--------------------3---3--03--5-3-1--1--1-------------3-5---5-5--05-578--|

Coro x2

G|-------------------------------------------|
D|-------------------------------------------|
A|1-1-1-1-1-3-3-3-3-3-5-5-5-5-5--------------|
E|---------------------------------3-3-3-3-3-|

Intermedio (es breve pero se hace después del coro)

G|-------------------------------------------|
D|-------------------------------------------|
A|1-1-1-1-1------------------------5-5-5-5-5-|
E|------------3-3-3-3-3-5-5-5-5-5------------|

Verso x2

G|--------------------------------------------------------------------------|
D|--------------------------------------------------------------------------|
A|---5--5--0-5---875-------------------------1---1H3--1---------------------|
E|--------------------3---3--03--5-3-1--1--1-------------3-5---5-5--05-578--|

Coro x2

G|-------------------------------------------|
D|-------------------------------------------|
A|1-1-1-1-1-3-3-3-3-3-5-5-5-5-5--------------|
E|---------------------------------3-3-3-3-3-|

tercer coro (un remordimiento inflama las venas) hay una pequeña variación

G|-----------------------------------------------|
D|-----------------------------------------------|
A|1-1-1-1-1-3-3-3-3-3-5-5-5-5-5----------------5-|
E|---------------------------------3-3-3-5-5-5---|

Y después repite el intro x1

G|-------------------------|
D|-------------------------|
A|---------------5---------|
E|--5-----1----------------|

Y el final es así x2

G|-------------------------------------------|
D|-------------------------------------------|
A|1-1-1-1-1------------------------5-5-5-5-5-|
E|------------3-3-3-3-3-5-5-5-5-5------------|


Y termina con x4

G|-------------------------|
D|-------------------------|
A|---------------5---------|
E|--5-----1----------------|

Bueno, así me suena muy bien la canción, probablemente me hayan faltado algunas
variaciones por ahí pero sirve muy bien como base y creo que esta completa.
Saludos
Este fichero es trabajo propio de su transcriptor y representa su interpretación personal de la canción. El material contenido en esta página es
para exclusivo uso privado, por lo que se prohibe su reproducción o retransmisión, así como su uso para fines comerciales.

© LaCuerda.net · Aviso Legal · Privacidad