Acordes de Guitarra » T »los Tres » Amor Violento (Tab)

Amor Violento
los Tres

Letras, Acordes y Tabs para Guitarra, Bajo y Ukulele

  •  A                  Bm          E7
    ----------5--2------------------------2--0-----------
    -------2--------2--------3--2------3-----------------
    ------2-----------------4---------1------------------
    -----2-----------------4---------2-------------------
    --0-----------------2--------------------------------
    --------------------------------0--------------------
    
    
    
    
                      A       Bm
    Cuando por primera vez te vi
    
    E7          A              Bm        E7
    supe que el cielo era para ti y para mi
    
      A         Bm    E7  A  Bm  E7
    y para ti y para mi
          A            Bm   E
    
  • Intro: A   Dmaj7/A   B   E7
    
        A         Dmaj7/A         B        E7
    e|--9--9--9--9----7--5-5--5--5-5--7--
    B|--10-10-10-10---9--7-7--7--7-7--9--
    G|-----------------------------------
    D|-----------------------------------
    A|-----------------------------------
    E|-----------------------------------
    
        A         Dmaj7/A         B        E7
    e|--9--9--9--9----7--5-5--5--5-5--7--5-7--
    B|--10-10-10-10---9--7-7--7--7-7--9--7-9--
    G|----------------------------------------
    D|----------------------------------------
    A|----------------------------------------
    E|----------------------------------------
    
    A       Dmaj7/A     B       E7
    e|--7.---5.---4.----------------------
    
  • LA - SIm - MI7 X 3  - LA
    
     LA         SIm  MI7 LA         SIm  MI7 LA    SIm  MI7 
    -9-9-9-9--7-55555-7--9-9-9-9--7-55555-7-55--7-5-4-2-----------------------------
    -10101010-9-77777-9--10101010-9-77777-9-75--------------------------------------
    --------------------------------------------------------------------------------
    --------------------------------------------------------------------------------
    --------------------------------------------------------------------------------
    --------------------------------------------------------------------------------
    
                 LA           SIm MI7  
    Cuando por primera vez te vi
                  LA           SIm       MI7  
    Supe que el cielo era para ti y para mi
    LA            SIm  MI7  
    Y para ti y para mi
    
    LA - SIm - MI7
    
          LA           SIm MI7 
    
  •  si|-----5---7---333233/75-
    sol|-----6-----------------
     re|-----7-----------------
     la|-----7-----------------
     MI|--5--5-----------------
    
    
    
    
                 LA       SIm
    (A))Cuando Por Primera Vez te vi
    
    MI7              LA        SIm       MI7
       supe que el cielo era para ti y para mi
    
    LA    SIm           MI7     LA
       y para ti y para mi...
    
    
    (A)nunca mas podré dormir
    
  • Hola, esta es una buena forma de tocar el bajo en este tema
    escuchen el tema y sabrán el tiempo de cada nota.
    
    Introducción
    A)
    1---------------------------------------------------------
    2---------------------------------------------------------
    3------4-4------7-------4-4-------7------4-4-------7------
    4----5-----5-7-7--7---5-----5-7--7--7---5----5-7--7--7--5-
    
    A)
    Cuando por primereeeera vez te vi.......
    1--------------------------------
    2--------------------------------
    3-----------------4-4------7-----
    4---------------5-----5-7-7--7---
    
    Supe que el cielo era para ti y para mi 
    1--------------------------------
    2--------------------------------
    3-----------------4-4------7-----
    4---------------5-----5-7-7--7---
    
              y para ti y para mi oh
    1--------------------------------
    2--------------------------------
    3-----------------4-4------7-----
    4---------------5-----5-7-7--7---
    
    A) 
    Nunca mas podre dormir
    nunca mas podre soñar 
    con nadie que no seas 
  • +
    ¡Colabora con nosotros!
    Envíanos tu versión de esta canción

Letra de Amor Violento
Cuando por primera vez te vi
supe que el cielo era para ti y para mi
y para ti y para mi
Nunca mas podre dormir
nunca mas podre soñar
con nadie que no seas tu
Gastare toda mi vida
en comprar la tuya
gastare toda mi vida
y mas, mucho mas, mucho mas
El amor tendra que esperar
un buen rato para descansar
de tu y de mi, de tu y de mi
El amor tendra que esperar
un buen rato para descansar
de tu y de mi, de tu y de mi
Gastare toda mi vida
en comprar la tuya
gastare toda mi vida
y mas, y mas
Gastare toda mi vida
en comprar la tuya
gastare toda mi vida
y mas, y mas , y mas
Porque un amor violento
nos deslumbro
un amor violento nos fulmino
Porque un amor violento
nos deslumbro
un amor violento nos fulmino

y la estructura de la introduccion se repiten en las estrofas.
Interpretese bien la introduccion (arreglo para una guitarra)
Acordes :




[Amor Violento chords][Amor Violento cifra]
© LaCuerda.net · aviso legal · privacidad · es · en · pt · contacto