Acordes de Guitarra » T »los Tres » Pajaros de fuego (Tab)

Pajaros de fuego
los Tres

Letras, Acordes y Tabs para Guitarra, Bajo y Ukulele

  • Comienzo  LAm7 4 veces
    
    LAm DO SIm MI7 2 veces
    
    
    LAm           DO
    No sé si hubo algo
           SIm          MI7
    Que me haga hecho soñar
      LAm          DO
    En un instante todo
       SIm          MI7
    Se vuelve realidad.
    
        LAm         DO
    Los pájaros de fuego
        SIm           MI7
    Se vuelven contra mí
       LAm           DO
    Me secan y me encienden
    
  • Comienzo  LAm7 4 veces
    
    LAm DO SIm MI7 2 veces
    
    
    LAm           DO
    No sé si hubo algo
           SIm          MI7
    Que me haga hecho soñar
      LAm          DO
    En un instante todo
       SIm          MI7
    Se vuelve realidad.
    
        LAm         DO
    Los pájaros de fuego
        SIm           MI7
    Se vuelven contra mí
       LAm           DO
    Me secan y me encienden
    
  • sta cancion  s la version unplugged, muy wena,
     y la transcripcion sta muy wena,
    quiza tenga x ahí unos detalles, pero son pocos
    
    A)
    G.----------------------
    D.----------------------
    A.----------------------   x 4
    E.-5---5---5--5-5-------
    
    B)
    G.-2-0------------------------------
    D.-----3-2---0-2-----0-3-0-2-0------
    A.---------3-----3-2-----------3-2--  x1
    E.----------------------------------
    
    C)
    G.---------------------------------
    D.-----0-2---2-0-----0-3-0-2-0-----
    A.-0-3-----3-----3-2-----------3-2-  x7
    E.---------------------------------
    
    D)
    G.-----------------------------------
    D.-----------------0-0-0-0-----------
    A.-0-0-0-0---------------------------   x2
    E.---------3-3-3-3---------1-1-3-3---
    
    A) x4
    B) x1
    C) x7
    D) x4
    
    E)
    G.----------------------------
    D.--7-7-5-5-6-7-7-  x N veces-
    A.----------------------------
    E.----------------------------
    
    Despues cuando baja comienza en esta nota,
    luego vienen los sgtes. riff(cada uno c repite como 4 veces)
    G.------------------ ------------
  • +
    ¡Colabora con nosotros!
    Envíanos tu versión de esta canción

Letra de Pajaros de fuego
No sé si hubo algo
Que me haga hecho soñar
En un instante todo
Se vuelve realidad.
Los pájaros de fuego
Se vuelven contra mí
Me secan y me encienden
Negándome a seguir.
Vacío, rodeado
Llorando por un siglo
Vacío, rodeado
Llorando por un siglo.
Todo lo que veo
No lo veré jamás
Extraño y condenado
A no mirar atrás.
Los templos que vomitan
Los rezos del dolor
Hacen reír al cielo
Y al mal que hay en ti señor.
Vacío, rodeado
Llorando por un siglo
Vacío, rodeado
Llorando por un siglo.




[Pajaros de fuego chords][Pajaros de fuego cifra]
© LaCuerda.net · aviso legal · privacidad · es · en · pt · contacto
DINAMICO