Acordes de Guitarra » T »los Tres » He Barrido el Sol (Tab)

He Barrido el Sol
los Tres

Letras, Acordes y Tabs para Guitarra, Bajo y Ukulele

  • Intro : G - D7 - G - D7
    
    
    G             D7
    He barrido el sol de este lugar
    
    G             D7
    arrastre el calor del basural
    
    Em     B     C     E7 
    que brillaba sobre ti
    
    A7       D7       G
    no se si fue tan asi
    
    G             D7
    Con mi voz de plata hare temblar
    G              D7               Em 
    romper los cristales llorar esperar
    
    
  • e|--7/10-9-10--7-6-7---------------------------7-8-------7-6-7----|
    B|--------------------8-7-8--------------7-8-10---7---------------|
    G|-------------------------7---------7-9--------------------------|
    D|-------------------------------9-10-----------------------------|
    A|----------------------------------------------------------------|
    E|----------------------------------------------------------------|
    
    e|-------------------------------------------7h8p7----------------|
    B|-8-7-8---------7h8p7----------------7-8-10-------10-8-7-----7-10|
    G|--------7-6-7--------9-8-7-----9-10---------------------9-8-----|
    D|---------------------------9-7----------------------------------|
    A|----------------------------------------------------------------|
    E|----------------------------------------------------------------|
    
    e|-8-7-----------7-9-7--------------7-----8h10p8-----------7------|
    B|-----8-------8-------8-------7-10--------------10-8-8-10---10---|
    G|-------9-6-9-----------9-7-8------------------------------------|
    D|----------------------------------------------------------------|
    A|----------------------------------------------------------------|
    E|----------------------------------------------------------------|
    
  • e|--------------------------------------------------------------|
    B|--------------------------------------------------------------|
    G|---------0-----0-------0-----0-------0-----0------------------|
    D|-------0---3>0-------0---3>0-------0---3>0--------------------|x2
    A|---1>2-----------1>2-----------1>2-----------2-2-2------------|
    E|-3-------------------------------------------3-3-3------------|
    
    e|-----0---3>0---------------0--------------------------------2-|
    B|-2>3---3-----3>0-----3-------3------------------------------1-|
    G|-----------------3>4---3>4-----4-----0----------------------2-|
    D|---------------------------------2-3---3>2>0-----2>0--------0-|
    A|---------------------------------------------2>0-----2>0------|
    E|---------------------------------------------------------3----|
    
    El siguiente riff, lo puede tocar una segunda guitarra pa no hacer acordes:
    
    e|--3-----2-----0~~-----2-----0-----2~~-----0-------------------|
    B|------0-----0-----0-------1---1---------1---1-----------------|
    G|----0-----0---------0---2-------2-----2-------2---------------|
    D|--------------------------------------------------------------|
    
  •  Este es el solo de he barrido el Sol,es lo mejor que pueden encontrar
    
    e|--------------0---------------5---------------------------------------------|
    B|------5-3---0---3---------------7----~--------------------------------------|
    G|--2/4----4----------------4/7-----7--7--------se repite dos veces-----------|
    D|----------------------------------------------------------------------------|
    A|----------------------------------------------------------------------------|
    E|----------------------------------------------------------------------------|
    -
    e|------7-------8--7----10--8---------------14----------14---10---------------|
    B|--------8----------7--------8-------12-15-------12-14--------10-------------|
    G|--7/9-----9--8------9------------13----------12----------------11-----------|
    D|----------------------------------------------------------------------------|
    A|----------------------------------------------------------------------------|
    E|------------------------------
  • e|----------------------------------------------------------------------|
    B|--------------------------------~-------------------------------------|
    G|-----------0------0------0-----0-------0-----0------------------------|
    D|---------0----3-0------0---3-0-------0---3-0------------------x2------|
    A|-----1/2------------1/2-----------1/2---------------------------------|
    E|---3-------------------------------------------3-3--------------------|
    
    e|--------0----3-0-----|--------------------|---------------------------|
    B|---2/3----3-------3--|-------0---3-0------|---------------------------|
    G|---------------------|--2/3----3-----3-2--|-----0---------------------|
    D|---------------------|--------------------|-2/3---3-2-0-----2-0-------|
    A|---------------------|--------------------|-------------2-0-----2-0---|
    E|---------------------|--------------------|-------------------------3-|
    
    e|--2---3------|
    B|--1---3------|
    G|--2---0------|
    D|--0---0------|
    A|--x---2------|
    E|--x---3------|
    
  • e|---0-----0----0---0---|
    B|----3----3-----10-10--|
    G|-/4---/4---/11----11--| x2
    D|----------------------|
    A|----------------------|
    E|----------------------|
    
    
    e|---7-----7-8-----10-8----------10-14---------14---|
    B|----8-------7--------(8)-----12---------10-14-----|
    G|-/9--9--8------/9---------/13--------/13----------|
    D|--------------------------------------------------|
    A|--------------------------------------------------|
    E|--------------------------------------------------|
    
    
    e|--10-----------3--|
    B|--10-----------3--|
    G|--11---7-7--5--4--|
    D|--12---9-9--7--5--|
    
  • (esta es la versión del bajo legal)
    
    A Intro
    1----------------------------------------- 
    2-----------------------------------------
    3--2-3-4-5-5-3---2-3-4-5-5-pausa-55-5-3---
    4-3-------5---5-3-------5---------------5-
    
    B He barrido el sol de este lugar
    1------------------------------------
    2------------------------------------
    3--2-3-4-5-5-3-----------------------
    4-3-------5---5-3#sigue abajo--------
    
      Arrastre el calor del basural
    1------------------------------------
    2-----------1------------------------
    3-2-3-4-5-5--------------------------
    4--------5---------------------------
    
      Que brillaba sobre ti
    1--4----------------------------------
    2-2-2-4---5--2------------------------
    3----2-2-3-3--5-3-2-------------------
    4-------------------------------------
    
      No se si fue tan asi
    1------------------------------------
    2------------------------------------
    3--7--5-3-2----2-3-4-5---------------
    4-5-5---------3----------------------
    
      Lo mismo se repit
  • +
    ¡Colabora con nosotros!
    Envíanos tu versión de esta canción

Letra de He Barrido el Sol
He barrido el sol de este lugar
arrastre el calor del basural
que brillaba sobre ti
no se si fue tan asi
Con mi voz de plata hare temblar
romper los cristales llorar esperar
y en tu cama brillara
el sol que no volvera
No es tan facil ser feliz
cuando opacaste el barniz
que pintaste verde azul y gris
que quitaste a espaldas de mi
que pintaste verde
(Se repite 2 veces todo lo anterior)
Al final de la cancion :
....que pintaste verde azul y gris
que quitaste a espaldas de mi
Acordes:




[He Barrido el Sol chords][He Barrido el Sol cifra]
© LaCuerda.net · aviso legal · privacidad · es · en · pt · contacto