Acordes de Guitarra » S »Soda Stereo » el Rito (Tab)

el Rito
Soda Stereo

Letras, Acordes y Tabs para Guitarra, Bajo y Ukulele

  • -----------5---------------------
    --------8------------------------
    ----7----------------------------   Repitan esto durante la intro
    ---------------------------------
    ---------------------------------
    ---------------------------------
    
    F
    Soy un profanador
    Estoy desafiando al tiempo
    G
    Ya ves mi transgresión
    Es procurar tenerte
    F
    El cielo entiende de mi obsesión
    Esta llegando a un limite
    G
    El desierto, al menos hoy
    No parece, no parece tan...
    
    
  •          REm7                         SOL7
    1-----3-------3-----3-------3------3-------3-----3-------3
    2---6---6---6-----6---6---6------6---6---6-----6---6---6--
    3-5-------5-----5-------5------5-------4-----4-------4----
    4---------------------------------------------------------
    5---------------------------------------------------------
    6---------------------------------------------------------
             SIbm7                       FA
    1-----3-------3-----3-------3-----3-------3-----3-------3-
    2---6---6---6-----6---6---6-----6---6---6-----6---6---6---
    3-4-------6-----6-------6-----6-------5-----5-------5-----
    4---------------------------------------------------------
    5---------------------------------------------------------
    6---------------------------------------------------------
    
    
    MIb
       Soy un profanador
    
    estoy desafiando al tiempo
    
  •    Dm7           G7            Bbm7          F 
    --3---3--3---3--3---3--3---3--3---3--3---3--3---3--3---3----
    -6-6-6--6-6-6--6-6-6--6-6-6--6-6-6--6-6-6--6-6-6--6-6-6-----
    5---5--5---5--5---4--4---4--4---6--6---6--6---5--5---5------
    ------------------------------------------------------------
    ------------------------------------------------------------
    ------------------------------------------------------------
    
    
    Break 
    
    Eb
    Soy un profanador
    Estoy desafiando al tiempo...
    F
    Ya ves, mi transgresión
    Es procurar tenerte
    Eb 
    El cielo entiende que mi obsesión
    Esta llegando a un limite...
    
  • ------------------------------------
    Intro --> D7
    Em C Em D
    
    Em F
    Soy un profanador
    Em F
    Estoy desafiando al tiempo
    F G
    Ya ves mi trasgresión
    F G
    Es procurar tenerte
    Em F
    El cielo entiende de mi obsesión
    Em F
    Esta llegando a un límite
    F G
    El desierto, al menos hoy
    F G
    No parece, no parece tan...
    
  •             Dm7           G7        Bbm7       F
    
    INTRO e|------5----5----5----5----5----5----5----5----5----5--5--------|
          B|----8----8----8----8----8----8----8----8----8----8----8--------|
          G|--7----7----7----7----7----7----7----7----7----7------7--------|
          D|---------------------------------------------------------------|
          A|---------------------------------------------------------------|
          E|---------------------------------------------------------------|
    
            1ra Guitarra Empieza Asi Mientras que la 2da hace los Acordes
    
    
    
           F
    Soy un profanador
    
     e|-----------------
     B|-----------------
     G|-----------------  Con Palm Mute
     D|--3333333333-----
    
  • e---3-----3----3----3-----3---3----3---3----3----3----3----3------
    B--6--6--6----6-6--6-----6-6-6----6-6-6----6-6--6----6-6--6-------
    G-5-----5----5----5-----5---4----4---4----4----6---6----6--------
    D
    A
    E
    
    e------3----3---3---3------
    B----6--6--6---6-6-6-------     x2
    G---6-----5---5---5--------
    
    
    
    VERSO:
    e|-6----------------------------------------------------------------------|
    B|-6----------------------------------------------------------------------|
    G|-8----------------------------------------------------------------------|
    D|-8----------------------------------------------------------------------|
    A|-6----------------------------------------------------------------------|
    E|-x----------------------------------------------------------------------|
    
  • e|-----3-------3---|-----3-------3--|-----3-------3--|-----3-------3--|
    B|---6---6---6-----|---6---6---6----|---6---6---6----|---6---6---6----|
    G|-5-------5-------|-5-------5------|-5-------4------|-4-------4------|
    D|-----------------|----------------|----------------|----------------|
    A|-----------------|----------------|----------------|----------------|
    E|-----------------|----------------|----------------|----------------|
    
    e|-----3-------3---|-----3-------3--|-----3-------3--|-----3-------3--|
    B|---6---6---6-----|---6---6---6----|---6---6---6----|---6---6---6----|
    G|-4-------6-------|-6-------6------|-6-------5------|-5-------5------|
    D|-----------------|----------------|----------------|----------------|
    A|-----------------|----------------|----------------|----------------|
    E|-----------------|----------------|----------------|----------------|
    
    VERSO: Inicia con un slide en de LA a LA sostenido en la 6ta cuerda.
    Así: E|-5s6-|
    
    D#add9
    Soy un profanador, estoy desafiando al tiempo
    FAdd9
    
  • 1/------------------------------------------------
    2/------------------------------------------------
    3/--7 (x 16)---3(x 16)---7(x 16)---5(x 16)-
    4/------------------------------------------------
    
    1/------------------------------------------------
    2/------------------------------------------------
    3/------------------------------------------------
    4/---1-1-1-1---0-1-0-1-1-1-1-1--1----
    
    1/----------------------------------------------------
    2/----------------------------------------------------
    3/----------------------------------------------------
    4/---3-3-3-3-1-3-1-3-3-3-3-3-0---------
    
    
    1/------------------------------------------------
    2/------------------------------------------------
    3/------------------------------------------------
    4/---1-1-1-1---0-1-0-1-1-1-1-1--1---
    
    1/----------------------------------------------------
    2/----------------------------------------------------
    3/----------------------------------------------------
    4/---3-3-3-3-1-3-1-3-3-3-3-3-0----------
    
    1/---
  • +
    ¡Colabora con nosotros!
    Envíanos tu versión de esta canción
  • Tutorial
    HD
    Como tocar El rito (Soda Stereo)
    41:24
  • Tutorial
    HD
    Explicado - Como tocar "El rito" de Soda Stereo en el bajo tutorial#154
    11:01

Letra de el Rito
Soy un profanador
Estoy desafiando al tiempo
Ya ves mi transgresión
Es procurar tenerte
El cielo entiende de mi obsesión
Esta llegando a un limite
El desierto, al menos hoy
No parece, no parece tan...
Sueles encontrarme en cualquier lugar
Y ya lo sabes nada es casualidad
Tu misteriosa forma me lastimara
Pero a cada segundo estaré mas cerca
Paralizándome
Jamas podre esperarte
Y no tengo porque esperar
En un altar de sacrificios
Y descifrar tu enigma
Tal vez no hablar de mas
El silencio no es tiempo perdido
Sueles encontrarme en cualquier lugar
Y ya lo sabes nada es casualidad
Tu misteriosa forma me lastimara
Pero a cada segundo estare mas cerca
Desafiando al rito
Destruyendo mitos
Sueles encontrarme en cualquier lugar
Y ya lo sabes nada es casualidad
Tu misteriosa forma me lastimara
Pero a cada segundo estaré mas cerca
Y desafiando al rito
Destruyendo mitos
Desafiando al rito
Destruyendo mitos
es opcional si hacen G7 , pueden hacer G simplemente al igual que el C.
Acordes que ocupé que quizás no salgan en la notación
|||||| ||||||
|||o|| |||o||
||||o| ||||oo
|||||| ||||||




[el Rito chords][el Rito cifra]
© LaCuerda.net · aviso legal · privacidad · es · en · pt · contacto