Acordes de Guitarra » S »Soda Stereo » Imágenes Retro (Tab)

Imágenes Retro
Soda Stereo

Letras, Acordes y Tabs para Guitarra, Bajo y Ukulele

  • Intro: Am Em Em Am Em G
    
    Am              Em
    Debo tomar el antídoto
    G                    Dm
    para romper con la rigidez.
    Am                    Em
    Vivo como un sonámbulo,
      G                     F
    buscando pliegues en la pared.
    
    F       G             F     G
    Telarañas, sueño con telarañas.
    F        G               Dsus4  C
    Telarañas, que cuelgan de mí.
    
    Esto parece un museo de cera.
    Un simulacro demasiado real.
    Debo encontrar algún sitio afuera
    debo cambiar la escena, entre...
    
  •      (Am)             (Em)           (Am)             (Em)
    
    e-|------12--10--8--|--------------|-----12--10--8--|---------------|
    B-|--10--10--10--10-|-12-12---12sl-|-10--10--10--10-|-12-12----12sl-|
    G-|---9-------------|--9--9-9--9sl-|--9-------------|--9--9--9--9sl-|
    D-|-----------------|--------------|----------------|---------------|
    A-|-----------------|--------------|----------------|---------------|
    E-|-----------------|--------------|----------------|---------------|
    
    
         (Am)            (Em)           (G)
    e-|-----12--10--8--|--------------|----------|----------------------|
    B-|-10--10--10--10-|-12-12---12sl-|-12-12-12-|------------13----12/-|
    G-|--9-------------|--9--9-9--9sl-|-12-12-12-|----------12------12/-|
    D-|----------------|--------------|-12-12-12-|-12(12)/14-----14-----|
    A-|----------------|--------------|----------|----------------------|
    E-|----------------|--------------|----------|----------------------|
    
    Las notas en entre paréntesis las toca otra gtr pero con algo de delay
    
    
  • E---------12---10----8----777-------
    B---10----10---10----10---888-------
    G---9-----9----9-----10---999-------
    D---10----10---10-------------------
    A-----------------------------------
    E----------------------------------- x3
    
    Luego un SOL y
    E--777-|--888--|--7--
    B--888-|--888--|--8--
    G--777-|--777--|--7--
    D------|-------|-----
    A------|-------|-----
    E------|-------|-----
    
    Verso
    LAm               MI
    Debo tomar el antidoto
       SOL              REm
    para romper con la rigidez   E--5-----|--5---7--|--5-----8
    
  •  F          G                  D--C    <  C O R O 
      Telarañas...  que cuelgan de mi...    | 
                                            |_
    
    RIFF 1
                                                   3)-5---------7-- 
     A                 E           G               4)---3-0-1-1----
      Esto parece un museo de Cera, un simulacro demasiado real
     A                     E            G               4)-3-1- 3)-5--3--2
      Debo encontrar algun sitio afuera, debo cambiar la escena,  entre...
    
      < C O R O >
    
     G            A           F           E     
      Mis ojos perciben otra vez imagenes retro
     G           A             F                 E
      Asi es la trama de este film, tu propio reflejo... 
     
     3)-----------------3-5-  
     4)-----5--3-5--3-5-----  (x 4)
    
  • +
    ¡Colabora con nosotros!
    Envíanos tu versión de esta canción
  • Tutorial
    HD
    Imágenes Retro - SODA STEREO MVV (Tutorial)
    4:38
  • Tutorial
    HD
    Como tocar Imagenes retro (Soda Stereo)
    15:19

Letra de Imágenes Retro
Debo tomar el antídoto
para romper con la rigidez.
Vivo como un sonámbulo,
buscando pliegues en la pared.
Telarañas, sueño con telarañas.
Telarañas, que cuelgan de mí.
Esto parece un museo de cera.
Un simulacro demasiado real.
Debo encontrar algún sitio afuera
debo cambiar la escena, entre...
Telarañas, sueño con telarañas.
Telarañas, que cuelgan de mí.
Mis ojos perciben otra vez,
imágenes retro.
Así es la trama de este film
tu propio reflejo.
Reflejo.
Mis ojos perciben otra vez
imágenes retro,
reproduciéndose sin fin
dejándome inmóvil, entre...
Telarañas, sueño con telarañas.
Telarañas, que cuelgan de mí




[Imágenes Retro chords][Imágenes Retro cifra]
© LaCuerda.net · aviso legal · privacidad · es · en · pt · contacto