Acordes de Guitarra » S »Soda Stereo » El cuerpo del delito (Tab)

El cuerpo del delito
Soda Stereo

Letras, Acordes y Tabs para Guitarra, Bajo y Ukulele

  • B
    En un instante
         E
    el grito estalló
      B
    detrás de mí
      E           A A7  B
    detrás de vos
    
    
    Sombras,
    implacables detectives,
    que persiguen,
    persisten.
    
    No tienen pruebas
    ni identikits
    no es posible
    LA reconstrucción.
    Pone en pedazos
    
  • G-----4-4-2-------------------4-4-7-----
    D---------------------------------------
    A-0-2----------------------2--------2---
    E-----------0-2--2-5-5-4-2------------0-
    
    
    SI                  MI
    En un instante el grito estalló
        SI           MI
    detrás de mí, detrás de vos
    
    Sombras, implacables detectives,
    que persiguen, persisten.
    No tienen pruebas, ni identikits
    no es posible la reconstrucción.
    Pone en pedazos todo vestigio... comprometedor
    
    ESTRIBILLO
    SIm           FA#m
    Vámonos...salgamos de esta habitación,
    
  • **Ahí les va un bajaso de Zeta...
    
    
    El tema empieza con el bajo
    
    Esto es con slap (S) y pop (P)
    
    
       S  S  P P P  S S  S SS S S S P P P S S
    g-------------------------------4-4-7------
    D--------9-9-7-----------------------------    (X4)
    A-----------------------------2------------
    E--5--7---------0-2--2-55-4-2---------5-0--
    
    
    0:29
    Verso 1
    
       S  S  P P P  S S  S SS S S S P P P S S
    g-------------------------------4-4-7------
    D--------9-9-7-----------------------------    (X4)
    A-----------------------------2------------
    E--5--7---------0-2--2-55-4-2---------5-0--
    
    
    "En un instante el mito estallo detras de mi, detras de vos
    Sombras, implacables detectives q persiguen, persisten
    No tienen pruebas ni identikits, no es posible la reconstrucción
    Vola en pedazos todo vestigio, comprometedor.."
    
    
    0:57
    Puente
    
    "Vamonos, salgamos de esta habitación, escondamoslo en algun lugar
    seguro.."
    
    g---------------------------------------------
    D---------------------------------------------
    A-555555555---
  • Acá va la correción del tab transcrito por Mariano, para darle un
    sonido más 'slapeado', yo hago popping con las 2 primeras cuerdas.
    Otra cosa, no hace 0-2--2-55-4-2 sino que se oye bien que Zeta hace
    0-2---2-55-2-0-7 y los 2 últimos golpes son 7(si)-0 y no 5(la)-0.
    El 1º "vamonos..." está bien, pero no así el 2º que comienza en
    Si pero de ahí pasa a La(5)no a Fa# (2).
    Bueno, va el arreglo.
    
    Esto es con slap (S) y pop (P)
    
    INTRO
    
       S S  P P P  S S  S SS S S  S   P P P S S
    G-------4-4-2---------------------4-4-7-----
    D-------------------------------------------  (X4)
    A--0-2------------------------2-------------
    E--------------0-2--2-55-2-0------------7-0-
    
    
    0:29
    Verso 1
    "En un instante el rito estalló, detrás de mi, detras de vos.
    Sombras, implacables detectives que persiguen, persisten.
    No tienen pruebas ni identikits, no es posible la reconstrucción.
    Pone en pedazos todo vestigio, comprometedor.."
    
    
       S S  P P P  S S  S SS S S  S   P P P S S
    G-------4-4-2----------------
  • +
    ¡Colabora con nosotros!
    Envíanos tu versión de esta canción

Letra de El cuerpo del delito
En un instante
el grito estalló
detrás de mí
detrás de vos
Sombras,
implacables detectives,
que persiguen,
persisten.
No tienen pruebas
ni identikits
no es posible
Pone en pedazos
todo vestigio comprometedor
Estribillo:
Vámonos
salgamos de esta habitación,
escondámoslo,
en algún lugar seguro
así está bien
ni la CIA, ni la KGB,
ni el FBI.

No esta vez,
no podrán encontrar,
el cuerpo del delito, oh
el cuerpo del delito, oh
el cuerpo del delito, oh
el cuerpo del delito.
Cada uno
es su propio delator,
su propio
infierno individual.
Yo tengo mano a mano
detonador artificial.
Estribillo por 1
Buscando, buscando, buscando.




[El cuerpo del delito chords][El cuerpo del delito cifra]
© LaCuerda.net · aviso legal · privacidad · es · en · pt · contacto