Acordes de Guitarra » S »Soda Stereo » Entre caníbales (unplugged) (Tab)

Entre caníbales (unplugged)
Soda Stereo

Letras, Acordes y Tabs para Guitarra, Bajo y Ukulele

  • e|-------------------|
    B|-------------------|
    G|-------------------|
    D|---2---------------| Riff 1 x4
    A|-----0-2-3-5-------|
    E|-------------0-3-5-|
    
    (C  D) x4
    
         Em      C  D  Am7
    Una eternidad
        Em  C       D      Am7
    esperé  este instante
            Em    C  D   Am7
    y no lo dejaré
         Em C      D          Am7
    deslizar en recuerdos quietos
    
         C7
             ni en balas rasantes que matan.
    
  • C7: 032310
    D9: X54530
    E7: 076750
    
    INTRO
    e|-------------------|
    B|-------------------|
    G|-------------------|
    D|---2---------------|
    A|-----0-2-3-5-------|
    E|-------------2-3-5-|
    
    e---------------------|     RIFF 1 X2
    B---------------------|
    G---------------------|
    D---------------------|
    A---7-----------------|
    E-----5-7-8-10-2-3-5--|
    
    
    
  • Entre Canibales - version MTV Unplugged p/bajo
    
    Basicamente son 4 patrones que se repiten combinadamente en algunas ocasiones.
    
    Escuchenla y les resultada facil e intuitivamente
    encontrar el "feeling" que lleva el bajo.
    
    
    Intro:
    G|-------------------------------------|x4
    D|-------------------------------------|
    A|--7---0-2-3----------5---------------|
    E|--------------------------2-3--5-----|
    
    G|-------------------------------------|
    D|-------------------------------------|
    A|--3-----5-3-----5-3------5-3----5----|
    E|-------------------------------------|
    
    
    "Una eternidad..."
    G|-------------------------------------|x4
    D|-------------------------------------|
    A|--7---0-2-3----------5---------------|
    E|--------------------------2-3--5-----|
    
    
    Pre Coro:
    
    G|-------------------------------------|
    D|-------------------------------------|
    A|--3-3---------3---3-3----------3-----|
    E|-------0-3-5----5-------0-3-5----5---|
    
    G|-------------------------------------|
    D|--------------------------------
  • +
    ¡Colabora con nosotros!
    Envíanos tu versión de esta canción
  • Tutorial
    HD
    Entre caníbales - Soda Stereo - Guitarra
    2:06
  • Tutorial
    HD
    Explicado - Como tocar "Entre canibales" de Soda Stereo en el bajo tutorial#118
    10:23

Letra de Entre caníbales (unplugged)
Una eternidad
esperé este instante
y no lo dejaré
deslizar en recuerdos quietos
ni en balas rasantes que matan.
Ah....come de mi come de mi carne.
Ah........entre caníbales.
Ah.....tómate el tiempo en desmenuzarme
Ah..........entre caníbales.
Entre caníbales
el dolor es veneno, nena
y no lo sentirás
hasta el fin mientras te muevas lento,
lento y jadees el nombre que mataaa.
Ah....come de mi come de mi carne.
Ah........entre caníbales.
Ah.....tómate el tiempo en desmenuzarme
Ah..........entre caníbales.
Riff 1
(Em-022003- Am7 D Am7) x8
Ah come de mí
Ah come de mí
Ah una eternidad
esperé este instante




[Entre caníbales (unplugged) chords][Entre caníbales (unplugged) cifra]
© LaCuerda.net · aviso legal · privacidad · es · en · pt · contacto