Acordes de Guitarra » S »Soda Stereo » En el séptimo día (Tab)

En el séptimo día
Soda Stereo

  • Letra y Acordes
    intro:  SI5 FA#5 LA5 SI5 FA#5 LA5 (x7)
            SI5 FA#5 LA5
            RE5 DO#5 SI5 SOL5 MI (x3)
            RE
            SI5 FA#5 LA5 (x4)
    
    
    SI5 FA#5 LA5 SI5        FA#5  LA5
    odio             este domin- go
    
    SI5 FA#5 LA5      SI5 FA#5
    hìbrido   de siempre
    
     LA5    RE          SI5 FA#5 LA5 SI5 FA#5 LA5
    me da igual, me da igual
    
    es un beso en la pantalla
    de auto cine
    sin gozar, sin gozar
    
    
  • Letra y Acordes
      B
    odio este domingo
    híbrido de siempre
              D            B
    me da igual, me da igual
    B
    Es un beso en la pantalla
    del autocine
           D          B
    sin gozar, sin gozar
    
    E
    El ojo de la aguja
    la punta de mi lengua
        D             B
    es igual, es igual igual
    B
    El comienzo fue un bing-bang
    y fue caliente
           D          B
    
  • Tablatura
    ------------------------
    (Los numeros entre parentesis se tocan opcional.
    Gustavo en vivo no los toca. Por ejemplo,
    se salta de SI a FA# en la digitacion de fig.01)
    
          B5             F#     A
       E|-----------------------------|-----------------------------|
       B|-----------------------------|-----------------------------|
       G|-4---4-----------------------|-4---4-----------------------|
       D|-4---4-----------------------|-4---4-----------------------|
       A|-2---2--(2)-(2)--------0---0-|-2---2--(2)-(2)--------0---0-|
       E|----------------2-2--2-------|----------------2-2-2--------|
    
    
    Fig.02:
    ------
         Bm/E      A  G  E
       E|---------------0-----0------
       B|-3-------2--0--0-----0------
       G|-4-(X6)--2--0--1--1--1------
    
  • Tablatura
       E]----------------------------------------- 
       B]-----------------------------------------
       G]-----------------------------------------
       D]-4-4------4---4-4-------4---4-4-------4--
       A]-2-2-0----0---2-2-0-----0---2-2-0-----0--
       E]-------222--0-------222---0-------222----
    
    Fig.2 (x3)
    
       E]-----------------------
       B]-----------------------
       G]-----------------------
       D]-7-7-7-7--6-6--4-4-4---
       A]-5-5-5-5--4-4--2-2-2---
       E]-----------------------
    
    Fig.3 (x1)
    
       E]-----------------------
       B]-----------------------
    
  • +
    ¡Colabora con nosotros!
    Envíanos tu versión de esta canción

Letra de En el séptimo día
odio este domin- go
hìbrido de siempre
me da igual, me da igual
es un beso en la pantalla
de auto cine
sin gozar, sin gozar
el hojo del aguja
do35 si5 sol5
la punta de la lengua
es igual, es igual
El comienzo fue un big
bang y fue caliente
revolver, revolver
Sobre los titulos
vi caer tu nombre En este tiempo anfibio
Reaccione, reaccione temo perderte
es el sèptimo día la llave de la verdad
En el septimo dia En el septimo dia
no descansare....
No descansare........



© LaCuerda.net · aviso legal · privacidad · contacto