Acordes de Guitarra » S »Soda Stereo » Hombre al Agua (Tab)

Hombre al Agua
Soda Stereo

Letras, Acordes y Tabs para Guitarra, Bajo y Ukulele

  • INTRO [ E Em A ] (2)  E
     Em             A                  E
    Meses navegando, tierra a la vista
     Em                 A         E
    todo volvera a ser como fue
         Em              A                     E
    las luces en la costa son faros del pasado
         Em             A         C
    todo volvera a ser como fue
                               D A F#m A C
    Y cuando salto de cubierta
                                  A  [ E Em A ] (2)  E
    y me abandono a la corriente
    
     Em                 A                   E
    Nuevas formas crecen son tan atractivas
      Em                 A        C
    quiero descansar de todo ayer
                               D A F#m A C
    y voy flotando por el rio
    
  • INTRO (E G A)x2
    E  G               A
       Meses navegando,  tierra a la vista
    E  G                   A
       todo volvera a ser como fue
    E  G                    A
       las luces en la costa son faros del pasado
    E  G                   A       C
       todo volvera a ser como fue
                                D A F#m A C
    Y cuando salto de cubierta
                                  A  [ E G A ] (2)  E
    y me abandono a la corriente
    
    E  G                    A
       Nuevas formas crecen son tan atractivas
    E  G                    A         C
       quiero descansar de todo ayer
                               D A F#m A C
       y voy flotando por el rio
    
  • Intro: MI MIm LA LA4 LA
    MI MIm        LA
       Meses navegando
                     MI
    tierra a la vista
    MIm
    todo volverá a ser
    LA      LA4 LA
    como fue
    
    MI MIm              LA
       Las luces en la costa
                        MI
    son faros del pasado
    MIm
    todo volverá a ser
    LA      LA4 LA
    como fue
    
    DO                        RE
    
  • INTRO [ E Em A ] (2)  E
     Em             A                  E
    Meses navegando, tierra a la vista
     Em                 A         E
    todo volvera a ser como fue
         Em              A                     E
    las luces en la costa son faros del pasado
         Em             A         C
    todo volvera a ser como fue
    
    Y cuando salto de cubierta
    
      B-------------------------------1------------------
      G-2--1--2--1-----------1--2--4-----4--2--1---------
      D-------------4--2--4-----------------------2------
    
                         [ E Em A ] E
    y me abandono a la corriente
    
      e---------------------12v-----12-------------------------9--10--9--
    
  •  E            Em                 A
    Meses navegando, tierra a la vista
     E                 Em        E
    todo volvera a ser como fue
         E              Em                   A
    las luces en la costa son faros del pasado
         E            Em         C
    todo volvera a ser como fue
    
    Y cuando salto de cubierta
    
      B--------------------------------------------------
      G-2--1--2--1-----------1--2--4--5---4--2--1--------
      D-------------4--2--4-----------------------4------ C
    
                         [ E Em A ] E
    y me abandono a la corriente
    
      e------------------12----12---------------------9--10-9
      b------------------12----12---------------------10-10-10
    
  • B:bend
    /:slide
    
    acordes de inicio:
    
    e/----------------5----------------
    b/-----9-----8----5----------------
    g/-----9-----7----6----------------
    d/-----9-----9----7----------------
    a/-----7-----7----7----------------
    E/----------------5----------------
    
    precoro 1:
    ........y cuando salto dde cubierta
    e/----8-----------------------------
    b/----8-----------------------------
    g/----9-----------------------------
    d/----10------------7-6-7-6---------
    a/----10---------------------9------
    E/----8-----------------------------
    
  • aki esta el bajo de esta rola perfecto y "sin errores"
    esta bien facil. cualkier cosa mi email, tengo varias rolas
    mas de soda y un monton de otros grupos sebaska_182@hotmail.com
    
    verso
    
    1---------------------|-----------------------|
    2---------------------|---------------5-------|
    3--7-5-----5-7------5-|--7-5-----5-7-----7-5--|
    4-------7------5-7----|-------7---------------|
    
    1-------------------|--------------------||
    2-------------------|--------------------||
    3---------4-------5-|----4---2---4---5-4-||
    4--5-3-5-----5-3----|------5---5---5-----||
    
    puente
    
    1----------|----------|-----|-----|-----|-----|
    2----------|----------|-----|-----|-----|-----|
    3-33333333-|-33333333-|-5-5-|-----|-----|---5-|
    4----------|----------|-----|-5-5-|-2-2-|-5---|
    
    1----------|----------|----------|----------||
    2----------|----------|----------|----------||
    3-33333333-|-33333333-|----------|----------||
    4----------|----------|-55555555-|-55555555-||
    
    Coro
    
    1------------------------------------|
    2------2
  • +
    ¡Colabora con nosotros!
    Envíanos tu versión de esta canción
  • Tutorial
    HD
    Como tocar Hombre al agua (Soda Stereo)
    35:09

Letra de Hombre al Agua
Meses navegando, tierra a la vista
todo volvera a ser como fue
las luces en la costa son faros del pasado
todo volvera a ser como fue
Y cuando salto de cubierta
y me abandono a la corriente
Nuevas formas crecen son tan atractivas
quiero descansar de todo ayer
y voy flotando por el rio
voy envuelto en la corriente
Hombre al agua
voces que se agitan
hombre al agua
barco a la deriva
y voy flotando por el rio
voy envuelto en la corriente
Hombre al agua
voces que se agitan
hombre al agua
barco a la deriva
amanecio, abre los ojos
me ire con estas olas no estes preocupada
todos gritaran hombre al agua
voces que se agitan
barco a la deriva
voces que se agitan
barco a la deriva
voces que se agitan...




[Hombre al Agua chords][Hombre al Agua cifra]
© LaCuerda.net · aviso legal · privacidad · es · en · pt · contacto