Acordes de Guitarra » R »la Rondalla de Saltillo » La Rondalla (Tab)
  • Letra y Acordes
    Intro   Am   A7   Dm   E7  Am    (2)
    
                    Am
    En ésta noche clara,
            E7      Am     Dm
    de inquietos luceros,
                    Am
    lo que yo te quiero,
        E7         Am
    te vengo a decir.
    
                    Am
    Mirando que la luna,
        E7            Am    Dm
    extiende en el cielo,
               Am
    su pálido velo,
        E7        Am
    de plata y zafir.
    
    
  • Tablatura
    Ojala les guste es la version que toca la Rondalla de
     
    Saltillo aunque va con mandolina lo pueden acomodar asi.
    
    PRIMERA PARTE.
    
    E|---8-7-8-7-8-7-8----7-8-10-12-13-13-12-10---13-13-12-15--15-12-10-
    B|-----------------10-----------------------------------------------
    
    
    E|-10-9-7-10-9---8-7-8-7-8-7-8----7-8-10-12-13-13-12-10--13-13-12-15-
    B|-----------------------------10------------------------------------
    
    
    E|-15-12--------13-12-10---13-15-17----------------------------------
    B|-------10--10------------------------------------------------------
    
    INTERMEDIO
    
    E|-----9------9----9--9--7-7--7-7--5-5-4-5-9--5-4-2---7-7--7-7--5-5-
    B|-----10-----10--10-10--9-9--9-9--7-7-5-7-10-7-5-3---9-9--9-9--7-7-
    
    
    E|-5-5--4-4-2-4-7--4-2-0---------------------------------------------
    B|-7-7--5-5-3-5-9--5-3-2---------------------------------------------
  • Tablatura
      La rondalla
    La rondalla del saltillo
    
    __ 
      \ 
    _  e|--------------------------------------------------------
    _) B|-6--5--6--5--6--5--6--------6--7--9--9/11--11--9--7-----
       G|----------------------6--8------------------------------
    _  D|--------------------------------------------------------
    _) A|--------------------------------------------------------
       E|--------------------------------------------------------
    __/
    
    
    __ 
      \ 
    _  e|--6--6--5--8--5-----------------------------------------
    _) B|-----------------7--6-----------------------------------
       G|-----------------------8--6--5--8--6--5--6--------------
    _  D|--------------------------------------------------------
    _) A|--------------------------------------------------------
       E|--------------------------------------------------------
    __/
    
    __ 
      \ 
    _  e|--------------------------------------------------------
    _) B|-6--5--6--5--6--5--6--------6--7--9--9/11--11--9--7-----
       G|---------------------
  • Tablatura
    este es el requinto del principio:
    
    E -0---0---0---0-------------3--3/5--5--3--1--
    B ---4---4---4---0--1--3--5-------------------
    G --------------------------------------------
    D --------------------------------------------
    A --------------------------------------------
    E --------------------------------------------
    
    
    E--5--5--4--7--4------------------------------
    B----------------6--5--3--1--0--3--1--0--1----
    G---------------------------------------------
    D---------------------------------------------
    A---------------------------------------------
    E---------------------------------------------
    
    
    E -0---0---0---0-------------3--3/5--5--3--1--
    B ---4---4---4---0--1--3--5-------------------
    G --------------------------------------------
    D --------------------------------------------
    A --------------------------------------------
    E --------------------------------------------
    
    
    E--5--5--4--7--4---------8--7--5--0-----------
    B----------------6--5--5------------1-
  • +
    ¡Colabora con nosotros!
    Envíanos tu versión de esta canción

Letra de La Rondalla
En ésta noche clara,
de inquietos luceros,
lo que yo te quiero,
te vengo a decir.
Mirando que la luna,
extiende en el cielo,
su pálido velo,
de plata y zafir.
En mí corazón, en mí corazón,
siempre estás, siempre estás,
y yo no de olvidarte jamás.
Porque yo nací, porque yo nací,
para ti, para ti,
y la dueña de mi alma serás.
En ésta noche clara,
de inquietos luceros,
lo que yo te quiero,
te vengo a decir.
Abre el balcón, y el corazón,
mientras que pasa la ronda,
sabes mí bien, que yo también,
siento una pena muy honda.
Para que estés, cerca de mí,
te bajaré las estrellas,
en ésta noche callada,
en toda mi vida, será la mejor.
Para que estés, cerca de mí,
te bajaré las estrellas,
en ésta noche callada,
en toda mi vida, será la mejor.



© LaCuerda.net · aviso legal · privacidad · contacto