Acordes de Guitarra » R »la Rondalla de Saltillo » Tema de Historia de Amor (Tab)

Tema de Historia de Amor
la Rondalla de Saltillo

Letras, Acordes y Tabs para Guitarra, Bajo y Ukulele

  •   LAm
     Cómo contaré
    aquí la historia
                MI7
    de tan puro y gran amor
    
    su luz profunda
              FA
    nos refleja su color
                                       MI7
    la sencillez con que nos llena de calor,
                      LAm
    como empezar.
      LAm
    Con sólo llegar
    llenó de fuerza
                MI7
    este vació que viví
    
    no habrá otro amor
    
  • Am                Dm
       “Como contaré aquí la historia,
                            E7
    de tan puro y gran amor,
              Am                        F
    su luz profunda nos refleja su color,
                   E7                                        Am
    la sencillez con que nos llena de calor, cómo empezar.”
    
     Am
    Cómo contaré,
                             Dm
    aquí la historia de tan puro y gran amor,
               E7          Am           F
    su luz profunda nos refleja su color,
                               E7                     Am
    la sencillez con que nos llena de calor, cómo empezar.
    
     Am
    Con sólo llegar,
    
  • Bueno pues espero que les sirvan los requintos.
    Escuchen la canción y así como están aquí anotados así aparecen
    en la canción. En este orden. (Escuchen bien la canción)
    
    
    
    Intro:
    
    e-7-----7-7-----7-7----------6-6-6-6-----6-6---------4-4-4-4
    B-----------------------------------------------------------
    G---8-8-----8-8-----8-9-8-6----------6-6-----6-8-6-4--------
    D-----------------------------------------------------------
    A-----------------------------------------------------------
    E-----------------------------------------------------------
    
    e-----4-4---------3-3-3-3---3-6-3-4
    B----------------------------------
    G-4-4-----4-6-4-3------------------
    D----------------------------------
    A----------------------------------
    E----------------------------------
    
    
    2do requinto:
    
    e-4-6-6/7-9-11-11--11-9-7-7-6-4
    B------------------------------
    G------------------------------
    D------------------------------
    A------------------------------
    E------------------------------
    
    
    3er requinto:
    
    e-4-
  • Em
    Cómo contaré
                            Am 
    aquí la historia de tan puro y gran amor
               B7          Em    
    su luz profunda nos refleja su color
    C                           B7
     la sencillez con que nos llena de calor, 
             
    cómo empezar.
             e---------7-7/9-9-10-10/11-11-10-11/13-I
             b-8--7--6------------------------------I
     
     Em
    Con sólo llegar
                           Am
    llenó de fuerza este vacío que viví
                   B7                  Em
    no habrá otro amor, no habrá otra luz ya para mí
    C                       B7                  
    
  • +
    ¡Colabora con nosotros!
    Envíanos tu versión de esta canción

Letra de Tema de Historia de Amor
Cómo contaré
aquí la historia
de tan puro y gran amor
su luz profunda
nos refleja su color
la sencillez con que nos llena de calor,
como empezar.
Con sólo llegar
llenó de fuerza
este vació que viví
no habrá otro amor
no habrá otra luz ya para mí
sólo esta vez
podré vivir amor así
amor así.
Lleno mi ser
con algo especial
como escuchar
un canto celestial
y se quedó
con tanto amor
que por doquier que voy
ya no estoy solo,
la llevo aquí,
no se separa
miro alrededor
la veo aquí.
Cuánto durará
este momento que se vuelve eternidad
el dulce sueño que se vuelve realidad
será la historia de mi amor hecho verdad
y allí estará.
DIANA TE AMO .
LOS KE ME CONOCEN LO SABEN
NO ME IMPORTA KE TU NO AMI.
ME BASTA CON KE TU SEPAS CUANTO TE KIERO.




[Tema de Historia de Amor chords][Tema de Historia de Amor cifra]
© LaCuerda.net · aviso legal · privacidad · es · en · pt · contacto