Acordes de Guitarra » R »la Rondalla de Saltillo » Morir de amor (Tab)

Morir de amor
la Rondalla de Saltillo

Letras, Acordes y Tabs para Guitarra, Bajo y Ukulele

  • Intro    Gm C7 F Bb A7 Dm
    
                         Gm  C7
    Busco frenar a mi camino,
                           F  Bb
    y me resisto a mi destino,
                         A7
    que encontrará un solo final,
               Dm
    morir de amor.
    
    Aunque me juzguen por quererte,
    yo sé que en ti estará mi muerte,
    que mi destino me marcó,
                Dm       D7
    morir de amor.
    
    CORO
               Gm  C7
    Morir de amor,
    
  •                                     Gm
    Gtr I  |-------------|----------5--|--3-------1--|--1----------|
           |----------0--|-1--3--5-----|-------------|-------------|
           |----2--2-----|-------------|-------------|-------------|
           |-------------|-------------|-------------|-------------|
           |-------------|-------------|-------------|-------------|
           |-------------|-------------|-------------|-------------|
    
    Gtr II |-------------|-------------|^10^^^^^^^^^^|^^^^^^^13^^^^|
           |-------------|-------------|-------------|-------------|
           |-------------|-------------|-------------|-------------|
           |-------------|-------------|-------------|-------------|
           |-------------|-------------|-------------|-------------|
           |-------------|-------------|-------------|-------------|
    
    
      C7                            F
    |--------------|-----------3--|-1-------0--|-0----------|
    |--------------|--0--1--3-----|------------|------------|
    |-----0--0--2--|--------------|------------|------------|
    
  • Morir de Amor
    La rondalla del saltillo
    
    __ 
      \ 
    _  e|-----------------6--9/11--9--7--7---
    _) B|--------6--7--9---------------------
       G|--8--8------------------------------
    _  D|------------------------------------
    _) A|------------------------------------
       E|------------------------------------
    __/
    
    __ 
      \ 
    _  e|-------------------9--7--6--6-------
    _) B|----------6--7--9-------------------
       G|--6--6--8---------------------------
    _  D|------------------------------------
    _) A|------------------------------------
       E|------------------------------------
    __/
    
    __ 
      \ 
    _  e|------------------------------------------
    _) B|-------------6--7--9/11-9---9--11--9--11--
       G|-------6--8-------------------------------
    _  D|--9-9-------------------------------------
    _) A|------------------------------------------
       E|------------------------------------------
    __/
  •                 Gm      C7                F        Bb
    6|-------------------------|-------------------------|
    5|-------------------------|-------------------------|
    4|-------------------------|-------------------------|
    3|-2-2---------------------|-0-0-2-------------------|
    2|-----0-1-3---------------|-------0-1-3-------------|
    1|-----------0-5-3-1-1-----|-------------3-1-0-0-----|
    *
    2|---------------8-8-8-----|---------------8-8-8-----|
    1|---------------------8-7-|-7-7-7-7-7-7-7-------7-5-|
    
                     A7            Dm
    6|---------------------|---------|
    5|---------------------|---------|
    4|-3-3-----------------|---------|
    3|-----0-2-------------|---------|
    2|---------0-1---3-----|-3---3-1-|
    1|-------------0-------|---0-----|
    *
    2|---------------6-----|---------|
    
  • +
    ¡Colabora con nosotros!
    Envíanos tu versión de esta canción

Letra de Morir de amor
Busco frenar a mi camino,
y me resisto a mi destino,
que encontrará un solo final,
morir de amor.
Aunque me juzguen por quererte,
yo sé que en ti estará mi muerte,
que mi destino me marcó,
morir de amor.
Morir de amor,
que sin pensar en las noches lloré,
amargo llanto que jamás controlé,
mi destino eres tú, mi condena es amar.
Lejos de ti busco encontrarte,
cerca de mí debo alejarte,
y sin tu amor he de morir,
morir de amor.
“A veces siento que se me escapan las fuerzas,
y el aliento, y la vida, y en la vida te me vas tú,
aunque naces conmigo a cada instante, y vuelvo a morir, de ti”
Morir de amor,
ya no me queda otra cosa que intentar,
que otra cosa no pueda encontrar,
solamente aceptar, recibir el final.
Mi primavera se hace otoño,
se marchitó con tu cariño,
que mi destino me marcó,
morir de amor.
Morir de amor, morir, de amor.




[Morir de amor chords][Morir de amor cifra]
© LaCuerda.net · aviso legal · privacidad · es · en · pt · contacto