Acordes de Guitarra » R »la Rondalla de Saltillo » Cómo (Tab)

Cómo
la Rondalla de Saltillo

Letras, Acordes y Tabs para Guitarra, Bajo y Ukulele

  •    G               B7              Em               G7
    
    E|-7-8-8-7-7---------8-8-7-7---------8-8-7-7----------8-8-7-7
    B|-8---------------------------------------------------------
    G|-7---------7-6-7-8---------8-7-8-9---------9-8-9-10--------
    D|-----------------------------------------------------------
    A|-----------------------------------------------------------
    E|-----------------------------------------------------------
    
       C         Cm       G          E  Am    D7         G    D7
    
    E|---10-10-8-8-7--------12-12-10-10-8-8-8-8-7----------------
    B|-8-------------10-8-7-----------------------10-8-7-8-------
    G|-----------------------------------------------------------
    D|-----------------------------------------------------------
    A|-----------------------------------------------------------
    E|----------------------------------------------------------- 
    
    (1)
    
    
  •      SOL           SI7            MIm             REm   SOL7      DO
    1.---8-8-7-7--------8-8-7-7--------8-8-7-7---------8-8-7-7----------
    2.---8-8-8-8--------7-7-7-7--------8-8-8-8---------8-8-8-8----------
    3.--7--------7-6-7-8--------8-7-8-9--------9-8-9-10--------10-9-10-9
    
                 DOm       SOL          MIm LAm    RE7      SOL   RE#  SOL
    1.--10-10--8--8-7---7-6-5--12-12-10-10----8-8-7-7-5-----------------
    2.--12-12-10-10-8---8-7-6--13-13-12-12---5-----------8-7-8----------
    3.------------------------------------------------------------------
    
    SOL
    Como imaginar
           SI7
    que la vida sigue igual
    MIm
    como si tus pasos
          REm          SOL7
    ya no cruzan el portal
    DO         DOm
    como pretender
    
  •      G             B7     Em        G7                 C
    1ª---8-8-7-7----------8-8-7-7-----------8-8-7-7-----------------
    2ª---8-8-8-8----------7-7-8-8-----------8-8-8-8-----------------
    3ª-7---------7-6-7-8--8-8-9-9-9-8-9-10--7-7-7-7--9-8-9-10-------
    
             Cm          G            E7  Am     D7        G      D#  G
    1ª-10-10-8-8-7-----------12-12-10-10---8--8--7-7-5-3-2-3--------
    2ª-8--8--8-8-7-----------10-10-10-10---10-10-8-8-7-5-3-3--------
    3ª-8--8--8-8-7-9-8-9-10--10-10-10-10--9----------------4--------
    
    
     G                    B7
    COMO IMAGINAR QUE LA VIDA SIGUE IGUAL
     Em                       G7
    COMO SI TUS PASOS YA NO CRUZAN EL PORTAL
     C          Cm  G          E
    COMO PRETENDER, ESTA REALIDAD
     Am            A7              D#        D7
    COMO SI HASTA AYER BRILLABA EL SOL EN TU MIRAR
    
    
  • G-B7-Em-Dm-G7-C-Cm-Bm-E7-LAm-RE7-G-Cm-G
    
    
        G                     B7
            Cómo imaginar que la vida sigue igual
        Em                         Dm           G7
            Cómo si tus pasos ya no cruzan el portal
        C               Cm   Bm     E7
            Cómo pretender esta realidad
            LAm             RE7             G           Cm     G
            Cómo si hasta ayer brillaba el cielo en tu mirar.
    
    EN ESTO ESTO QUE SIGUE ES SOLISTA Y EL CORO ES RU-RURURU-RURURU-
    RURURU-RURURU-RU-RURURU-RURURU
        G                      B7
            Cómo consolar a la rosa y al jazmín
        Em             Dm             G7
    Cómo si tu risa ya no se oye en el jardín
        C         Cm           Bm        E7
    Cómo he de mentirles que mañana volverás
    
  •           G               B7
    
    E -------------------------------------
    A -------------------------------------
    D -------------------------------------
    G --7-------------7-6-7-8--------------
    B -----8-8-8-8-------------7-7-7-7-----
    E -----8-8-7-7-------------8-8-7-7-----
    
    
                  Em                   G7
    
    E ---------------------------------------------
    A ---------------------------------------------
    D ---------------------------------------------
    G --8-7-8-9-------------9-8-9-10------7-7------
    B -----------8-8-8-8--------------6-6-6-6------
    E -----------8-8-7-7--------------8-8-7-7------
    
    
    
  •     D                     Edim       F#7 
            Cómo imaginar que la vida sigue igual
        Bm             A            Am           D7 
            Cómo si tus pasos ya no cruzan el portal
        G         A     F#m     Bm 
            Cómo pretender esta realidad
        Em                              Bb            A 
            Cómo si hasta ayer brillaba el cielo en tu mirar.
    
        
        D                      Edim       F#7 
            Cómo consolar a la rosa y al jazmín
        Bm             A             Am           D7
          Cómo si tu risa ya no se oye en el jardín
        G               Gm         F#m       Bm 
          Cómo he de mentirles que mañana volverás
        Em       G   A            D 
          Cómo despertar si tú no estás.
    
    
    
  • G                    B7
    COMO IMAGINAR QUE LA VIDA SIGUE IGUAL
    
     Em                       G7
    COMO SI TUS PASOS YA NO CRUZAN EL PORTAL
    
     C          Cm  G          E
    COMO PRETENDER, ESTA REALIDAD
    
     Am                            Cm  D7
    COMO SI HASTA AYER BRILLABA EL SOL EN TU MIRAR
    
    G                   B7
    COMO CONSOLAR A LA ROSA Y AL JAZMIN
    
     Em                     G7
    COMO SI TU RISA YA NO SE OYE EN EL JARDIN
    
    C              Cm           G         E7
    COMO HE DE MENTIRLES QUE MAÑANA VOLVERAS
    
  • +
    ¡Colabora con nosotros!
    Envíanos tu versión de esta canción

Letra de Cómo
(1)
COMO IMAGINAR QUE LA VIDA SIGUE IGUAL
COMO SI TUS PASOS YA NO CRUZAN EL PORTAL
COMO PRETENDER, ESTA REALIDAD
COMO SI HASTA AYER BRILLABA EL SOL EN TU MIRAR
(2)
COMO CONSOLAR A LA ROSA Y AL JAZMIN
COMO SI TU RISA YA NO SE OYE EN EL JARDIN
COMO HE DE MENTIRLES QUE MAÑANA VOLVERAS
COMO DESPERTAR SI TU NO ESTAS
(REQUINTO)
(2)
COMO CONSOLAR A LA ROSA Y AL JAZMIN
COMO SI TU RISA YA NO SE OYE EN EL JARDIN
COMO HE DE MENTIRLES QUE MAÑANA VOLVERAS
COMO DESPERTAR SI TU NO ESTAS.




[Cómo chords][Cómo cifra]
© LaCuerda.net · aviso legal · privacidad · es · en · pt · contacto