Acordes de Guitarra » R »la Rondalla de Saltillo » Wendolyne (Tab)

Wendolyne
la Rondalla de Saltillo

Letras, Acordes y Tabs para Guitarra, Bajo y Ukulele

  • E -----------------------------------------------------------------
    A -----------------------------------------------------------------
    D -----------------------------------------------------------------
    G -----------------------------------------------------------------
    B -3-------------------------------------------3-1-3--------------3
    E ---0--1--3--5--6--6--5--3--3--1--0---0--1--0-------5-6-5-3-1-0---
    
    
    
          Dm      Gm              C                    F
    Tan dentro de mí conservo el calor que me hace sentir,
                  Dm                Gm                  Dm
    conservo tu amor tan dentro de mí que aún puedo vivir
                  A7            Dm
    muriendo de amor muriendo de ti.
    
          D7         Gm                 C                  F
    Como buscan las olas la orilla del mar, como busca un marino
                    Dm                     Gm
    su puerto y su hogar yo he buscado en mi alma
    
  •      Dm       Gm                C                 F
    Tan dentro de mí conservo el calor que me hace sentir,
        A7       Dm                Gm                 Dm
    conservo tu amor tan dentro de mí que aún puedo vivir
                 A7              Dm
    muriendo de amor muriendo de ti.
    
          Dm        Gm                  C                   F
    Como buscan las olas la orilla del mar, como busca un marino
        A7           Dm                      Gm
    su puerto y su hogar yo he buscado en mi alma
                   A7                  Dm  A7       Dm
    queriéndote hallar y tan solo encontré mi  soledad.
    
        Dm           Gm                  C
    A pesar de estar lejos tan lejos de mí
                      F       A7        Dm
    A pesar de otros besos quizás wendolyne
                       Gm                     A7                     Dm A7 Dm
    aún recuerdes el tiempo de aquel nuestro amor aún te acuerdes de mí.
    
  •     Dm      Gm              C7
    Tan dentro de mí conservo el calor
                     F
    que me hace sentir,
     A7          Dm                 Gm
    conservo tu amor tan dentro de mí que
              Dm
    aún puedo vivir
                  A7            Dm
    muriendo de amor muriendo de ti.
    
    D7            Gm
    Como buscan las olas la orilla del
    C7                  F
    mar, como busca un marino
    
    A7               Dm
    su puerto y su hogar yo he buscado en
      Gm
    MI alma
    
  • E -----------------------------------------------------------------
    A -----------------------------------------------------------------
    D -----------------------------------------------------------------
    G -----------------------------------------------------------------
    B -4-6----------------------------6--6--6-4-2-4----6---6---6-------
    E -----2--4-6-7-------7-6-4--4-2-------2-------------7---6---4-----
    
    Y junto con la parte que esta separada en la tablatura de arriba se
    toca al mismo tiempo un requinto muy facil que es el R1,
    SE PUNTEA MUCHAS VECES LAS MCUERDAS (X?).
    
                    R1
    E -----------------------------------------------------------------
    A -----------------------------------------------------------------
    D -----------------------------------------------------------------
    G -----------------------------------------------------------------
    B -----------------------------------------------------------------
    E ---7(x11)----10(x11)---11(x15)-----------------------------------
    
                Gm              C                    F
    
  •     Gm    C7    F     Dm    A7    Am    Dmº
    e|--3-- --3-- --1-- --5-- --5-- --5-- --10--
    b|--3-- --5-- --1-- --6-- --5-- --5-- --10--
    G|--3-- --3-- --2-- --7-- --6-- --6-- --10--
    D|--5-- --5-- --3-- --7-- --5-- --7-- ------
    A|--5-- --3-- --3-- --5-- --7-- --7-- ------
    E|--3-- --3-- --1-- --5-- --5-- --5-- ------
    
    
    e|-------------------------------------------
    b|--3-5-6---8-10-11----11-10/8-8----8/6-6-5--
    G|-------------------------------------------
    D|-------------------------------------------
    A|-------------------------------------------
    E|-------------------------------------------
    
    
    e|---------------10-10-10-10-10-10-10-10-10--   Guitarra 2
    b|----------------------------------------------es un tremoledo
    
    
  • Intro: Gm A7 Dm - A7 - Dm
    
    
    
    E ---0--1--3--5--6--6--5--3--3--1--0---0--1--0-------
    B -3-------------------------------------------3-2-3-
    G ---------------------------------------------------
    D ---------------------------------------------------
    A ---------------------------------------------------
    E ---------------------------------------------------
    Segunda Guitarra
    E -10-10-10-10-10-10-9-9-9-9-9-9-9-9-10-10-10-10-10-10-10
    B -------------------------------------------------------
    
    E ---5----5---5---5----------
    B -----6----5-----6----------
    G ----------------7----------
    D ----------------7----------
    A ----------------5----------
    E ----------------5----------
    
  • Intro: Gm A7 Dm - A7 - Dm
    
    
    
    E ---0--1--3--5--6--6--5--3--3--1--0---0--1--0-------
    B -3-------------------------------------------3-2-3-
    G ---------------------------------------------------
    D ---------------------------------------------------
    A ---------------------------------------------------
    E ---------------------------------------------------
    Segunda Guitarra
    E -10-10-10-10-10-10-9-9-9-9-9-9-9-9-10-10-10-10-10-10-10
    B -------------------------------------------------------
    
    E ---5----5---5---5----------
    B -----6----5-----6----------
    G ----------------7----------
    D ----------------7----------
    A ----------------5----------
    E ----------------5----------
    
  • +
    ¡Colabora con nosotros!
    Envíanos tu versión de esta canción
  • Tutorial
    HD
    Wendolyne - La Rondalla de Saltillo - Tutorial guitarra - Acordes -ADORNOS - 1/2
    6:29

Letra de Wendolyne
Tan dentro de mí conservo el calor que me hace sentir,
conservo tu amor tan dentro de mí que aún puedo vivir
muriendo de amor muriendo de ti.
Como buscan las olas la orilla del mar, como busca un marino
su puerto y su hogar yo he buscado en mi alma
queriéndote hallar y tan solo encontre mi soledad.
A pesar de estar lejos tan lejos de mí
A pesar de otros besos quizas wendolyne
aún recuerdes el tiempo de aquel nuestro amor aún te acuerdes de mí.
**Mismo circulo en el poema**
Wendolyne, se quiebra mi voz al nombrarte
mi mirar se nubla al recordarte
y pensar que en dos manos
un día se unieron dos almas
y de aquello de ayer, ya nada quedó.
Aún recuerdo aquel ayer cuando estabas junto a mí
tú me hablabas del amor yo podía soreir
aun recuerdo aquel amor y ahora te alejas de mí.
Le he pedido al silencio que me hable de ti
he vagado en las noches queriendote oir
y al sonido del viento le he oído decir
tu nombre wendolyne.
TE AMO MONITA PREXxXIOSA...
By Niz




[Wendolyne chords][Wendolyne cifra]
© LaCuerda.net · aviso legal · privacidad · es · en · pt · contacto