Acordes de Guitarra » R »la Rondalla de Saltillo » Corazón De Roca (Tab)

Corazón De Roca
la Rondalla de Saltillo

Letras, Acordes y Tabs para Guitarra, Bajo y Ukulele

  •         G         Em         Am  D7
    Como saber comprender tu querer
           G           Em       Am   D7
    como logra que te fijes en mi
              G            Em      Am
    si ni siquiera has querido mirarme
    D7            G       Em        Am
    tampoco escucharme mujer caprichosa
    D7              G          Em         Am
    es porque te hicieron de piedra o de roca
    D7       G     Em  Am  D7
    ese corazón.
    
    
                G       Em      Am  D7
    Aunque de hielo sea tu corazón
             G          Em        Am   D7
    yo te dedico esta humilde canción
              G       Em         Am
    aunque parece que tu no la escuchas
    
  • e---0-2-3--2-0-3-2-0--5--------------
    B-3----------------------------------
    G------------------------------------
    D------------------------------------
    A------------------------------------
    E------------------------------------ (se repite)
    
    e-7-5-7-2---7-6-5--2-----------------
    B------------------------------------
    G------------------------------------
    D------------------------------------
    A------------------------------------
    E------------------------------------
    
            C          Am         Dm
    Como saber comprender tu querer
    G7      C          Am         Dm
    como lograr que te fijes en mi,
    G7       C            Am      Dm
    si ni siquiera has querido mirarme,
    
  • G     Em      Am         D7
    e--0-2-3-5-3-2-0-3-5-3-2-0-5/
    B-3-------------------------/
    G---------------------------/ ESTO SE REPITE DOS VECES
    D---------------------------/
    A---------------------------/
    E---------------------------/
    
    INTRO 2 VECES
    G Em Am D7
    
    
    
    
    G       Em        Am        D7
    Como saber comprender tu querer
    G       Em            Am     D7
    Como lograr que te fijes en mi
    G          Em         Am       D7
    Si ni siquiera has querido mirarme
    
  •         G         Em         Am  D7
    Como saber comprender tu querer
           G           Em       Am   D7
    como logra que te figes en mi
            G            Em      Am
    si nisiquiera has querido mirarme
    D7            G       Em        Am
    tampoco escucharme mujer caprichosa
    D7               G          Em         Am
    es por que te hicieron de piedra o de roca
    D7      G     Em  Am  D7
    ese corazon.
    
    
                 G        Em     Am  D7
    Aun que de hielo sea tu corazon
             G         Em         Am   D7
    yo te dedico esta humilde cancion
              G        Em         Am
    aunque parece que tu no la escuchas
    
  •  B-3---------------------------I-3---------------------------I
     G-----------------------------I-----------------------------I
    
     e-7-5-3-7-5-7---7-6-5-----5-I-7-5-3-I
     B-------------7-------7-7---I-7-5-3-I
     G---------------------------I-7-5-3-I
    
    
     Y ESTE ES EL REQUINTO QUE SE OYE UN PARRAFO ANTES DE TERMINAR.
     e---0-2-3-5-3-2-0-3-5-3-2-0-5-I-7-5-7---7-6-5---I
     B-3---------------------------I-------7-------7-I
     G-----------------------------I-----------------I
    
     EL CIRCULO DE SOL SON LOS ACORDES QUE SE USAN EN
     ESTA ROLA:
    
     G Em Am D7
    
     ESPERO QUE LES SALGA CHIDO, DISFRUTENLO. CABE DESTACAR QUE
     PARA ESTO RECIBI LA AYUDA DE MI HERMANO ALEJANDRO IVAN
    
  • +
    ¡Colabora con nosotros!
    Envíanos tu versión de esta canción

Letra de Corazón De Roca
Como saber comprender tu querer
como logra que te fijes en mi
si ni siquiera has querido mirarme
tampoco escucharme mujer caprichosa
es porque te hicieron de piedra o de roca
ese corazón.
Aunque de hielo sea tu corazón
yo te dedico esta humilde canción
aunque parece que tu no la escuchas
yo sé bien que finges por ser orgullosa
es porque te hicieron de piedra o de roca
ese corazón.
Yo sé, que es imposible que me quieras a mi
mi amor, no llegaras a comprender
Y sin embargo te llevo en mi ser
como una loca y sentida obsesión
por qué te hicieron de roca
y no puedes tener corazón.
Yo sé, que es imposible que me quieras a mi
mi amor, no llegaras a comprender
Y sin embargo te llevo en mi ser
como una loca y sentida obsesión
por qué te hicieron de roca
y no puedes tener corazón.




[Corazón De Roca chords][Corazón De Roca cifra]
© LaCuerda.net · aviso legal · privacidad · es · en · pt · contacto