Acordes de Guitarra » R »la Renga » Voy a bailar a la nave del olvido (Tab)

Voy a bailar a la nave del olvido
la Renga

Letras, Acordes y Tabs para Guitarra, Bajo y Ukulele

  • E|-----------|
    B|-----------|
    G|-----------|
    D|--4--2--0--|
    A|-----------|
    E|-----------|
    
    Riff 2
    E|-----------|
    B|-----------|
    G|-----------|
    D|-----------|
    A|--4--2--0--|
    E|-----------|
    
    G            D - Riff 1
    Hoy voy a bailar
    G               D - Riff 1
    a la nave del olvido
    G             D - Riff 1
    
  • FA#           DO#
    Hoy voy a bailar
    FA#             DO#
    a la nave del olvido
    FA#            DO#
    olvido mi gotera
    FA#              DO#
    y mi racion criminal
    
    SI                             FA#
    Perfumes baratos, ambientes picados
    SI                            DO#
    discos rayados, ya quiero despegar.
    
    FA#           DO#
    Hoy voy a bailar
    FA#              DO#
    a la Nave del Olvido,
    FA#              DO#
    olvido mis hermanos,
    
  • SOL           RE
    Hoy voy a bailar  -Riff 1-
    SOL               RE
    A la nave del olvido -Riff 1-
    SOL          RE
    Olvido MI gotera  -Riff 1-
    SOL             RE
    y mi Racion Crminal  -Riff 1-
    
    DO                           SOL
    Perfumes baratos, ambiente picado
    DO                            RE
    Discos rayados ya quiero despegar
    
    RE            LA
    Hoy voy a balar
    RE              LA
    A la nave del olvido
    RE                LA
    Olvido a mis hermanos
    
  • Este es el segundo solo que tiene la canción, 
    el cual no estaba en la página. Incluyo la explicación
    otra vez porque agregué nuevos símbolos:
    
    
    EXPLICACIONES
    
    ´: estirar
    `: bajar
    ^: estirar y bajar, y luego ligar.
    ': ligar
    s: deslizar
    
    E|-------------------------------------------13'10------
    B|-10--10---------------------------10-13-10------13'10-
    G|--9´--9´`-9-7------7'9------10'12---------------------
    D|---------------7s9-----9s12---------------------------
    A|------------------------------------------------------
    E|------------------------------------------------------
    
    
    E|13'10-------13'10-------13'10-------13'10-------------
    B|------13'10-------13'10-------13'10-------13'10-------
    G|------------------------------------------------------
    D|------------------------------------------------------
    A|------------------------------------------------------
    E|------------------------------------------------------
    
                                
    E|13'10---
  • Intro: G D + Riff 1
    
    G             D (Riff 1)  G                D  (Riff 1)
    Hoy voy a bailar,         a la nave del olvido
    G            D  (Riff 1)  G               D   (Riff 1)
    olvido mi gotera          y mi ración criminal
    C                              G
    Perfumes baratos, ambientes picados
    C                               D
    discos rayados, ya quiero despegar.
    
     Riff 1                           Riff 2
    e|--------2------------------3--| |---------------------------2--|
    B|--------3------------------0--| |--------2------------------3--|
    G|--------2------------------0--| |--------2------------------2--|
    D|-0-------------4---2---0---0--| |--------2------------------0--|
    A|---------------------------2--| |-0-------------4---2---0------|
    E|---------------------------3--| |------------------------------|
    
     Riff 3                                          Riff 4
    
  • Este es el segundo solo, lo pongo porque nadie lo habia sacado
    
    
    e--------------------------------------------------
    b----10--------------------------------------------
    g----12b--/14-12-10----------------------10-12-10~-
    D-------------------12~----10-12-10~--/12----------
    A-----------------------/12------------------------
    E--------------------------------------------------
    
    ---------------------------------------------------
    ----15-12---19t-12-15-19t-12-15-19t-12-15-19t-12-15
    /14------14----------------------------------------
    ---------------------------------------------------
    ---------------------------------------------------
    ---------------------------------------------------
    
    e-----------------------------------------------10--------------10-10---10-10-13-10~--
    b-13b15r13-10-12-13-12-10-----------------------10-10--10----/12----------------------
    g--------------------------12-10----------10-12b---12b-12b----------------------------
    D---------------------------
  • Bueno aca mejore algunas cosas con respecto a la vez anterior,
    Por ejemplo la parte que esta con asteriscos (**********), que
    No sabia bien que hacia pero gracias a una versión de River
    En vivo que no se escucha muy bien, pude escuchar que hace eso
    Otra parte que arregle fue el primer solo que no lo habia
    Escuchado bien, pero para tocarlo hay que escucharlo bien y
    Seguir al bombo de la bateria.
    
    Hoy voy a bailar....
    G-------------------------
    D-------------------------
    A--5—-5-7-5------------4--  x4 Veces
    E-----------7-5--5-7-5----
    
    Veni morocha...
    G--------------------------------------------------------
    D---------------------------------------------***********
    A------------3-5-55-5-55-3-2-------------------7-7-7-7---
    E-3-33-3-33-5---------------3-33-3-33---5-55-55--5-5-5-5-
    
    *esa parte la hace rapido
    
    
    La perito...
    G-------------------------------------------------------
    D-------------------------------------------------------
    A-----------------5--5-5-75----------------------------
  • +
    ¡Colabora con nosotros!
    Envíanos tu versión de esta canción
  • Tutorial
    HD
    Voy a bailar a la nave del olvido- la renga (solo de guitarra n1 con Tab)
    0:23

Letra de Voy a bailar a la nave del olvido
Riff 2
Hoy voy a bailar
a la nave del olvido
olvido mi gotera
y mi racion criminal
Perfumes baratos, ambientes picados
discos rayados, ya quiero despegar.
Hoy voy a bailar
a la Nave del Olvido,
olvido mis hermanos,
y estampitas de estacion.
Veni morocha que vamos a dar
una vuelta al chaperio.
La Perito esta desierta y la luna
que se ha posado sobre los techos.
De pompeya.
Hoy voy a bailar,
a la nave del olvido,
olvido a mis hermanos, yea,
y mi racion criminal.
Zapatos embarrados, vuelvo algo mareado
esquivando charcos no logro despertar.
La Perito sigue desierta y el sol
que hizo invisible a la luna.
La Perito sigue desierta y el sol
que se ha posado sobre los techos.




[Voy a bailar a la nave del olvido chords][Voy a bailar a la nave del olvido cifra]
© LaCuerda.net · aviso legal · privacidad · es · en · pt · contacto
DINAMICO