Acordes de Guitarra » R »la Renga » Oportunidad Oportuna (Tab)

Oportunidad Oportuna
la Renga

Letras, Acordes y Tabs para Guitarra, Bajo y Ukulele

  • [C5 D5 E5 ... C5 D5 G5]x2 ...G7
    
          G5*
    Esta noche es la noche, no voy a perder mas el tiempo
            C5*                             G5*
    Voy a salir de esta ciudad, no da para mas esta historia
             D5             E5                  C5      D5
    La vida tiene solo una vida y no voy a esperar     [...]
                           C5  D5        E5   C5     D5   G5
    a esos que quieren sentir     que mañana sabran donde ir
    
    [C5 D5 E5 ... C5 D5]
    
         G5*
    Aburrida sensación de saber lo que viene
            C5*                            G5*
    Vamos, loco, no me digas que aún no pegaste el pasaje
           D5            E5             C5      D5              
    Este tren se va y en el andén solo quedan  [...]
                         C5  D5        E5      C5  D5   G5
    
  • -----------------------------------------------------
     Aguante La Renga para todos los piojosos hijos de
     puta, perdonen por la mala palabra(piojosos)....
    
    --------------------------------------------------
     todavia no pude sacar el solo pero
     ya lo voy a sacar, esta canción
     tiene un ritmo rocanrolero....
     en la primer estrofa se hace de la sig manera
    --------------------------------------------------
       G5
    e------------------------
    b------------------------
    g------------------------
    d------------------------
    a--5-5---7-----5-5--7----
    E--3-3---3-----3-3--3----
     G5          G5
     Esta noche, esta noche
    G5
    
  • Bueno es bastante simple esta canción
    la palabras que pongo en mayuscula es cuando cambia de nota o empieza
    una
    
    Intro:                  "Fill"
    G|-----------------------------------------------------|
    D|----------------------5------------------------------|
    A|----3-3-3-5-5-5-7-7-7---7-5--3-3-3-5-5-5-------------|x2
    E|-----------------------------------------3-3-3-3-3-3-|
    
    
    Verso 1
     Esta noche es la noche...
    G|----------------------------------------------|
    D|----------------------------------------------|
    A|----------------------------------------------|
    E|--3-3-3-3-3-3-3-3-3-3-3-3-3-3-3-3-3-3-3-------|
    
    Voy a salir...     (...) MAS esta historia
    G|----------------------------------------------|
    D|----------------------------------------------|
    A|--3-3-3-3-3-3-3-3-3---------------------------|
    E|---------------------3-3-3-3-3-3-3-3----------|
    
    La vida SOLO(5) tiene una VIDA(7) y no voy a ESPERAR(3)
    G|----------------------------------------------|
    D|-----------------------------------
  • +
    ¡Colabora con nosotros!
    Envíanos tu versión de esta canción

Letra de Oportunidad Oportuna
Esta noche es la noche, no voy a perder mas el tiempo
Voy a salir de esta ciudad, no da para mas esta historia
La vida tiene solo una vida y no voy a esperar [...]
a esos que quieren sentir que mañana sabran donde ir
Aburrida sensación de saber lo que viene
Vamos, loco, no me digas que aún no pegaste el pasaje
Este tren se va y en el andén solo quedan [...]
Esos que quieren sentir que mañana sabran donde ir
Sí te sentás a esperar que vengan por vos los sentimientos
Vas a esperar tanto tiempo que la vida estará de vuelta
Este tren se va y en el andén solo quedan [...]
Esos que quieren sentir que mañana sabran donde ir
| [C D E ... C D G]x2 |
Sí te sentás a esperar...
MaRTo
PD: No prometo, juro el solo y el punteito... la joda es q la transcribi
de memoria y ni a palos me acuerdo algo q se pasaria en tablatura...suerte!




[Oportunidad Oportuna chords][Oportunidad Oportuna cifra]
© LaCuerda.net · aviso legal · privacidad · es · en · pt · contacto
DINAMICO